  0
SECTION
  2
HEADER
  9
$ACADVER
  1
AC1015
  9
$ACADMAINTVER
 70
     6
  9
$DWGCODEPAGE
  3
ANSI_1254
  9
$INSBASE
 10
0.0
 20
0.0
 30
0.0
  9
$EXTMIN
 10
0.0
 20
0.0
 30
0.0
  9
$EXTMAX
 10
279.4
 20
215.9
 30
0.0
  9
$LIMMIN
 10
0.0
 20
0.0
  9
$LIMMAX
 10
279.4
 20
215.9
  9
$ORTHOMODE
 70
     0
  9
$REGENMODE
 70
     1
  9
$FILLMODE
 70
     1
  9
$QTEXTMODE
 70
     0
  9
$MIRRTEXT
 70
     1
  9
$LTSCALE
 40
1.0
  9
$ATTMODE
 70
     1
  9
$TEXTSIZE
 40
3.5
  9
$TRACEWID
 40
1.0
  9
$TEXTSTYLE
  7
Standard
  9
$CLAYER
  8
0
  9
$CELTYPE
  6
ByLayer
  9
$CECOLOR
 62
   256
  9
$CELTSCALE
 40
1.0
  9
$DISPSILH
 70
     0
  9
$DIMSCALE
 40
1.0
  9
$DIMASZ
 40
3.5
  9
$DIMEXO
 40
1.0
  9
$DIMDLI
 40
3.75
  9
$DIMRND
 40
0.0
  9
$DIMDLE
 40
0.0
  9
$DIMEXE
 40
1.0
  9
$DIMTP
 40
0.0
  9
$DIMTM
 40
0.0
  9
$DIMTXT
 40
3.5
  9
$DIMCEN
 40
2.5
  9
$DIMTSZ
 40
0.0
  9
$DIMTOL
 70
     0
  9
$DIMLIM
 70
     0
  9
$DIMTIH
 70
     1
  9
$DIMTOH
 70
     1
  9
$DIMSE1
 70
     0
  9
$DIMSE2
 70
     0
  9
$DIMTAD
 70
     1
  9
$DIMZIN
 70
     0
  9
$DIMBLK
  1

  9
$DIMASO
 70
     1
  9
$DIMSHO
 70
     1
  9
$DIMPOST
  1

  9
$DIMAPOST
  1

  9
$DIMALT
 70
     0
  9
$DIMALTD
 70
     3
  9
$DIMALTF
 40
0.0393700787
  9
$DIMLFAC
 40
1.0
  9
$DIMTOFL
 70
     1
  9
$DIMTVP
 40
0.0
  9
$DIMTIX
 70
     0
  9
$DIMSOXD
 70
     0
  9
$DIMSAH
 70
     0
  9
$DIMBLK1
  1

  9
$DIMBLK2
  1

  9
$DIMSTYLE
  2
ISO-25
  9
$DIMCLRD
 70
     0
  9
$DIMCLRE
 70
     0
  9
$DIMCLRT
 70
     0
  9
$DIMTFAC
 40
1.0
  9
$DIMGAP
 40
1.524
  9
$DIMJUST
 70
     0
  9
$DIMSD1
 70
     0
  9
$DIMSD2
 70
     0
  9
$DIMTOLJ
 70
     0
  9
$DIMTZIN
 70
     0
  9
$DIMALTZ
 70
     0
  9
$DIMALTTZ
 70
     0
  9
$DIMUPT
 70
     0
  9
$DIMDEC
 70
     2
  9
$DIMTDEC
 70
     2
  9
$DIMALTU
 70
     2
  9
$DIMALTTD
 70
     3
  9
$DIMTXSTY
  7
Standard
  9
$DIMAUNIT
 70
     0
  9
$DIMADEC
 70
     2
  9
$DIMALTRND
 40
0.0
  9
$DIMAZIN
 70
     0
  9
$DIMDSEP
 70
    44
  9
$DIMATFIT
 70
     3
  9
$DIMFRAC
 70
     0
  9
$DIMLDRBLK
  1

  9
$DIMLUNIT
 70
     2
  9
$DIMLWD
 70
    -2
  9
$DIMLWE
 70
    -2
  9
$DIMTMOVE
 70
     0
  9
$LUNITS
 70
     2
  9
$LUPREC
 70
     2
  9
$SKETCHINC
 40
1.0
  9
$FILLETRAD
 40
10.0
  9
$AUNITS
 70
     0
  9
$AUPREC
 70
     2
  9
$MENU
  1
.
  9
$ELEVATION
 40
0.0
  9
$PELEVATION
 40
0.0
  9
$THICKNESS
 40
0.0
  9
$LIMCHECK
 70
     0
  9
$CHAMFERA
 40
0.0
  9
$CHAMFERB
 40
0.0
  9
$CHAMFERC
 40
0.0
  9
$CHAMFERD
 40
0.0
  9
$SKPOLY
 70
     0
  9
$TDCREATE
 40
2459741.588655174
  9
$TDUCREATE
 40
2459741.463655174
  9
$TDUPDATE
 40
2459741.588656702
  9
$TDUUPDATE
 40
2459741.463656702
  9
$TDINDWG
 40
0.0000000116
  9
$TDUSRTIMER
 40
0.0000000116
  9
$USRTIMER
 70
     1
  9
$ANGBASE
 50
0.0
  9
$ANGDIR
 70
     0
  9
$PDMODE
 70
     0
  9
$PDSIZE
 40
-1.0
  9
$PLINEWID
 40
0.0
  9
$SPLFRAME
 70
     0
  9
$SPLINETYPE
 70
     6
  9
$SPLINESEGS
 70
     8
  9
$HANDSEED
  5
122
  9
$SURFTAB1
 70
     6
  9
$SURFTAB2
 70
     6
  9
$SURFTYPE
 70
     6
  9
$SURFU
 70
     6
  9
$SURFV
 70
     6
  9
$UCSBASE
  2

  9
$UCSNAME
  2

  9
$UCSORG
 10
0.0
 20
0.0
 30
0.0
  9
$UCSXDIR
 10
1.0
 20
0.0
 30
0.0
  9
$UCSYDIR
 10
0.0
 20
1.0
 30
0.0
  9
$UCSORTHOREF
  2

  9
$UCSORTHOVIEW
 70
     0
  9
$UCSORGTOP
 10
0.0
 20
0.0
 30
0.0
  9
$UCSORGBOTTOM
 10
0.0
 20
0.0
 30
0.0
  9
$UCSORGLEFT
 10
0.0
 20
0.0
 30
0.0
  9
$UCSORGRIGHT
 10
0.0
 20
0.0
 30
0.0
  9
$UCSORGFRONT
 10
0.0
 20
0.0
 30
0.0
  9
$UCSORGBACK
 10
0.0
 20
0.0
 30
0.0
  9
$PUCSBASE
  2

  9
$PUCSNAME
  2

  9
$PUCSORG
 10
0.0
 20
0.0
 30
0.0
  9
$PUCSXDIR
 10
1.0
 20
0.0
 30
0.0
  9
$PUCSYDIR
 10
0.0
 20
1.0
 30
0.0
  9
$PUCSORTHOREF
  2

  9
$PUCSORTHOVIEW
 70
     0
  9
$PUCSORGTOP
 10
0.0
 20
0.0
 30
0.0
  9
$PUCSORGBOTTOM
 10
0.0
 20
0.0
 30
0.0
  9
$PUCSORGLEFT
 10
0.0
 20
0.0
 30
0.0
  9
$PUCSORGRIGHT
 10
0.0
 20
0.0
 30
0.0
  9
$PUCSORGFRONT
 10
0.0
 20
0.0
 30
0.0
  9
$PUCSORGBACK
 10
0.0
 20
0.0
 30
0.0
  9
$USERI1
 70
     0
  9
$USERI2
 70
     0
  9
$USERI3
 70
     0
  9
$USERI4
 70
     0
  9
$USERI5
 70
     0
  9
$USERR1
 40
0.0
  9
$USERR2
 40
0.0
  9
$USERR3
 40
0.0
  9
$USERR4
 40
0.0
  9
$USERR5
 40
0.0
  9
$WORLDVIEW
 70
     1
  9
$SHADEDGE
 70
     3
  9
$SHADEDIF
 70
    70
  9
$TILEMODE
 70
     1
  9
$MAXACTVP
 70
    64
  9
$PINSBASE
 10
0.0
 20
0.0
 30
0.0
  9
$PLIMCHECK
 70
     0
  9
$PEXTMIN
 10
1.0000000000E+20
 20
1.0000000000E+20
 30
1.0000000000E+20
  9
$PEXTMAX
 10
-1.0000000000E+20
 20
-1.0000000000E+20
 30
-1.0000000000E+20
  9
$PLIMMIN
 10
0.0
 20
0.0
  9
$PLIMMAX
 10
420.0
 20
297.0
  9
$UNITMODE
 70
     0
  9
$VISRETAIN
 70
     1
  9
$PLINEGEN
 70
     0
  9
$PSLTSCALE
 70
     1
  9
$TREEDEPTH
 70
  3020
  9
$CMLSTYLE
  2
Standard
  9
$CMLJUST
 70
     0
  9
$CMLSCALE
 40
20.0
  9
$PROXYGRAPHICS
 70
     1
  9
$MEASUREMENT
 70
     1
  9
$CELWEIGHT
370
    -1
  9
$ENDCAPS
280
     0
  9
$JOINSTYLE
280
     0
  9
$LWDISPLAY
290
     1
  9
$INSUNITS
 70
     4
  9
$HYPERLINKBASE
  1

  9
$STYLESHEET
  1

  9
$XEDIT
290
     1
  9
$CEPSNTYPE
380
     0
  9
$PSTYLEMODE
290
     1
  9
$FINGERPRINTGUID
  2
{875f1763-3577-4a21-a891-ad96b15e84e8}
  9
$VERSIONGUID
  2
{FAEB1C32-E019-11D5-929B-00C0DF256EC4}
  9
$EXTNAMES
290
     1
  9
$PSVPSCALE
 40
0.0
  9
$OLESTARTUP
290
     0
  0
ENDSEC
  0
SECTION
  2
CLASSES
  0
CLASS
  1
ACDBDICTIONARYWDFLT
  2
AcDbDictionaryWithDefault
  3
ObjectDBX Classes
 90
        0
280
     0
281
     0
  0
CLASS
  1
VISUALSTYLE
  2
AcDbVisualStyle
  3
ObjectDBX Classes
 90
     4095
280
     0
281
     0
  0
CLASS
  1
MATERIAL
  2
AcDbMaterial
  3
ObjectDBX Classes
 90
     1153
280
     0
281
     0
  0
CLASS
  1
SCALE
  2
AcDbScale
  3
ObjectDBX Classes
 90
     1153
280
     0
281
     0
  0
CLASS
  1
TABLESTYLE
  2
AcDbTableStyle
  3
ObjectDBX Classes
 90
     4095
280
     0
281
     0
  0
CLASS
  1
MLEADERSTYLE
  2
AcDbMLeaderStyle
  3
ACDB_MLEADERSTYLE_CLASS
 90
     4095
280
     0
281
     0
  0
CLASS
  1
SUN
  2
AcDbSun
  3
SCENEOE
 90
     1153
280
     0
281
     0
  0
CLASS
  1
ACDBPLACEHOLDER
  2
AcDbPlaceHolder
  3
ObjectDBX Classes
 90
        0
280
     0
281
     0
  0
CLASS
  1
LAYOUT
  2
AcDbLayout
  3
ObjectDBX Classes
 90
        0
280
     0
281
     0
  0
ENDSEC
  0
SECTION
  2
TABLES
  0
TABLE
  2
VPORT
  5
8
330
0
100
AcDbSymbolTable
 70
     1
  0
VPORT
  5
29
330
8
100
AcDbSymbolTableRecord
100
AcDbViewportTableRecord
  2
*Active
 70
     0
 10
0.0
 20
0.0
 11
1.0
 21
1.0
 12
139.7
 22
107.95
 13
0.0
 23
0.0
 14
10.0
 24
10.0
 15
10.0
 25
10.0
 16
0.0
 26
0.0
 36
1.0
 17
0.0
 27
0.0
 37
0.0
 40
215.9
 41
1.2941176471
 42
50.0
 43
0.0
 44
0.0
 50
0.0
 51
0.0
 71
     0
 72
  2000
 73
     1
 74
     3
 75
     0
 76
     0
 77
     0
 78
     0
281
     0
 65
     1
110
0.0
120
0.0
130
0.0
111
1.0
121
0.0
131
0.0
112
0.0
122
1.0
132
0.0
 79
     0
146
0.0
  0
ENDTAB
  0
TABLE
  2
LTYPE
  5
5
330
0
100
AcDbSymbolTable
 70
     6
  0
LTYPE
  5
14
330
5
100
AcDbSymbolTableRecord
100
AcDbLinetypeTableRecord
  2
ByBlock
 70
     0
  3

 72
    65
 73
     0
 40
0.0
  0
LTYPE
  5
15
330
5
100
AcDbSymbolTableRecord
100
AcDbLinetypeTableRecord
  2
ByLayer
 70
     0
  3

 72
    65
 73
     0
 40
0.0
  0
LTYPE
  5
16
330
5
100
AcDbSymbolTableRecord
100
AcDbLinetypeTableRecord
  2
Continuous
 70
     0
  3
Solid line
 72
    65
 73
     0
 40
0.0
  0
LTYPE
  5
6E
330
5
100
AcDbSymbolTableRecord
100
AcDbLinetypeTableRecord
  2
HIDDEN
 70
     0
  3
Hidden __ __ __ __ __ __ __ __ __ __ __ __ __ __
 72
    65
 73
     2
 40
1.905
 49
1.27
 74
     0
 49
-0.635
 74
     0
  0
LTYPE
  5
6F
330
5
100
AcDbSymbolTableRecord
100
AcDbLinetypeTableRecord
  2
PHANTOM
 70
     0
  3
Phantom ______  __  __  ______  __  __  ______
 72
    65
 73
     6
 40
12.7
 49
6.35
 74
     0
 49
-1.27
 74
     0
 49
1.27
 74
     0
 49
-1.27
 74
     0
 49
1.27
 74
     0
 49
-1.27
 74
     0
  0
LTYPE
  5
70
330
5
100
AcDbSymbolTableRecord
100
AcDbLinetypeTableRecord
  2
CENTER
 70
     0
  3
Center ____ _ ____ _ ____ _ ____ _ ____ _ ____
 72
    65
 73
     4
 40
10.16
 49
6.35
 74
     0
 49
-1.27
 74
     0
 49
1.27
 74
     0
 49
-1.27
 74
     0
  0
LTYPE
  5
71
330
5
100
AcDbSymbolTableRecord
100
AcDbLinetypeTableRecord
  2
CENTERX2
 70
     0
  3
Center (2x) ________  __  ________  __  _____
 72
    65
 73
     4
 40
20.32
 49
12.7
 74
     0
 49
-2.54
 74
     0
 49
2.54
 74
     0
 49
-2.54
 74
     0
  0
LTYPE
  5
72
330
5
100
AcDbSymbolTableRecord
100
AcDbLinetypeTableRecord
  2
DOT2
 70
     0
  3
Dot (.5x) ........................................
 72
    65
 73
     2
 40
0.635
 49
0.0
 74
     0
 49
-0.635
 74
     0
  0
ENDTAB
  0
TABLE
  2
LAYER
  5
2
330
0
100
AcDbSymbolTable
 70
    17
  0
LAYER
  5
10
330
2
100
AcDbSymbolTableRecord
100
AcDbLayerTableRecord
  2
0
 70
     0
 62
     7
  6
Continuous
370
    -3
390
F
  0
LAYER
  5
73
330
2
100
AcDbSymbolTableRecord
100
AcDbLayerTableRecord
  2
FORMAT
 70
     0
 62
     7
  6
Continuous
370
    -3
390
F
  0
LAYER
  5
74
330
2
100
AcDbSymbolTableRecord
100
AcDbLayerTableRecord
  2
YARDIMCI_GEOMETRI
 70
     0
 62
    -6
  6
Continuous
290
     0
370
    -3
390
F
  0
LAYER
  5
75
330
2
100
AcDbSymbolTableRecord
100
AcDbLayerTableRecord
  2
SAYFA_CERCEVESI
 70
     0
 62
     7
  6
Continuous
370
    25
390
F
  0
LAYER
  5
76
330
2
100
AcDbSymbolTableRecord
100
AcDbLayerTableRecord
  2
ANTET
 70
     0
 62
     7
  6
Continuous
370
    -3
390
F
  0
LAYER
  5
77
330
2
100
AcDbSymbolTableRecord
100
AcDbLayerTableRecord
  2
OLCU
 70
     0
 62
   150
  6
Continuous
370
    -3
390
F
  0
LAYER
  5
78
330
2
100
AcDbSymbolTableRecord
100
AcDbLayerTableRecord
  2
METIN
 70
     0
 62
    96
  6
Continuous
370
    -3
390
F
  0
LAYER
  5
79
330
2
100
AcDbSymbolTableRecord
100
AcDbLayerTableRecord
  2
BALON
 70
     0
 62
     5
  6
Continuous
370
    -3
390
F
  0
LAYER
  5
7A
330
2
100
AcDbSymbolTableRecord
100
AcDbLayerTableRecord
  2
VURGU
 70
     0
 62
     7
  6
Continuous
370
    -3
390
F
  0
LAYER
  5
7B
330
2
100
AcDbSymbolTableRecord
100
AcDbLayerTableRecord
  2
SILIK
 70
     0
 62
     7
  6
Continuous
370
    -3
390
F
  0
LAYER
  5
7C
330
2
100
AcDbSymbolTableRecord
100
AcDbLayerTableRecord
  2
MODEL
 70
     0
 62
     7
  6
Continuous
370
    -3
390
F
  0
LAYER
  5
7D
330
2
100
AcDbSymbolTableRecord
100
AcDbLayerTableRecord
  2
DETAYLANDıRMA
 70
     0
 62
   190
  6
Continuous
370
    -3
390
F
  0
LAYER
  5
7E
330
2
100
AcDbSymbolTableRecord
100
AcDbLayerTableRecord
  2
TOLERANS
 70
     0
 62
   230
  6
Continuous
370
    -3
390
F
  0
LAYER
  5
7F
330
2
100
AcDbSymbolTableRecord
100
AcDbLayerTableRecord
  2
MERKEZ_CIZGILERI
 70
     0
 62
    30
  6
Continuous
370
    -3
390
F
  0
LAYER
  5
80
330
2
100
AcDbSymbolTableRecord
100
AcDbLayerTableRecord
  2
KESIT-DETAY_CIZGILERI
 70
     0
 62
     7
  6
Continuous
370
    -3
390
F
  0
LAYER
  5
81
330
2
100
AcDbSymbolTableRecord
100
AcDbLayerTableRecord
  2
\U+041E\U+0421\U+0415\U+0412\U+042B\U+0415
 70
     0
 62
     7
  6
Continuous
370
    -3
390
F
  0
LAYER
  5
82
330
2
100
AcDbSymbolTableRecord
100
AcDbLayerTableRecord
  2
\U+0412\U+041E\U+0414\U+042F\U+041D\U+042B\U+0415_\U+0417\U+041D\U+0410\U+041A\U+0418
 70
     0
 62
    11
  6
Continuous
370
    -3
390
F
  0
ENDTAB
  0
TABLE
  2
STYLE
  5
3
330
0
100
AcDbSymbolTable
 70
     1
  0
STYLE
  5
11
330
3
100
AcDbSymbolTableRecord
100
AcDbTextStyleTableRecord
  2
Standard
 70
     0
 40
0.0
 41
1.0
 50
0.0
 71
     0
 42
3.5
  3
txt
  4

  0
ENDTAB
  0
TABLE
  2
VIEW
  5
6
330
0
100
AcDbSymbolTable
 70
     0
  0
ENDTAB
  0
TABLE
  2
UCS
  5
7
330
0
100
AcDbSymbolTable
 70
     0
  0
ENDTAB
  0
TABLE
  2
APPID
  5
9
330
0
100
AcDbSymbolTable
 70
     1
  0
APPID
  5
12
330
9
100
AcDbSymbolTableRecord
100
AcDbRegAppTableRecord
  2
ACAD
 70
     0
  0
ENDTAB
  0
TABLE
  2
DIMSTYLE
  5
A
330
0
100
AcDbSymbolTable
 70
     1
100
AcDbDimStyleTable
  0
DIMSTYLE
105
27
330
A
100
AcDbSymbolTableRecord
100
AcDbDimStyleTableRecord
  2
ISO-25
 70
     0
 41
2.5
 42
0.625
 43
3.75
 44
1.25
 73
     0
 74
     0
 77
     1
 78
     8
140
2.5
141
2.5
143
0.0393700787
147
0.625
171
     3
172
     1
178
     0
271
     2
272
     2
274
     3
278
    44
283
     0
284
     8
340
11
  0
ENDTAB
  0
TABLE
  2
BLOCK_RECORD
  5
1
330
0
100
AcDbSymbolTable
 70
     6
  0
BLOCK_RECORD
  5
1F
330
1
100
AcDbSymbolTableRecord
100
AcDbBlockTableRecord
  2
*Model_Space
340
22
  0
BLOCK_RECORD
  5
1B
330
1
100
AcDbSymbolTableRecord
100
AcDbBlockTableRecord
  2
*Paper_Space
340
1E
  0
BLOCK_RECORD
  5
23
330
1
100
AcDbSymbolTableRecord
100
AcDbBlockTableRecord
  2
*Paper_Space0
340
26
  0
BLOCK_RECORD
  5
8F
330
1
100
AcDbSymbolTableRecord
100
AcDbBlockTableRecord
  2
SW_CENTERMARKSYMBOL_0
340
0
102
{BLKREFS
331
9A
102
}
  0
BLOCK_RECORD
  5
9B
330
1
100
AcDbSymbolTableRecord
100
AcDbBlockTableRecord
  2
SW_CENTERMARKSYMBOL_1
340
0
102
{BLKREFS
331
A6
102
}
  0
BLOCK_RECORD
  5
A7
330
1
100
AcDbSymbolTableRecord
100
AcDbBlockTableRecord
  2
SW_CENTERMARKSYMBOL_2
340
0
102
{BLKREFS
331
B2
102
}
  0
BLOCK_RECORD
  5
B3
330
1
100
AcDbSymbolTableRecord
100
AcDbBlockTableRecord
  2
SW_CENTERMARKSYMBOL_3
340
0
102
{BLKREFS
331
BE
102
}
  0
BLOCK_RECORD
  5
BF
330
1
100
AcDbSymbolTableRecord
100
AcDbBlockTableRecord
  2
SW_CENTERMARKSYMBOL_4
340
0
102
{BLKREFS
331
CA
102
}
  0
ENDTAB
  0
ENDSEC
  0
SECTION
  2
BLOCKS
  0
BLOCK
  5
20
330
1F
100
AcDbEntity
  8
0
100
AcDbBlockBegin
  2
*Model_Space
 70
     0
 10
0.0
 20
0.0
 30
0.0
  3
*Model_Space
  1

  0
ENDBLK
  5
21
330
1F
100
AcDbEntity
  8
0
100
AcDbBlockEnd
  0
BLOCK
  5
1C
330
1B
100
AcDbEntity
 67
     1
  8
0
100
AcDbBlockBegin
  2
*Paper_Space
 70
     0
 10
0.0
 20
0.0
 30
0.0
  3
*Paper_Space
  1

  0
ENDBLK
  5
1D
330
1B
100
AcDbEntity
 67
     1
  8
0
100
AcDbBlockEnd
  0
BLOCK
  5
24
330
23
100
AcDbEntity
  8
0
100
AcDbBlockBegin
  2
*Paper_Space0
 70
     0
 10
0.0
 20
0.0
 30
0.0
  3
*Paper_Space0
  1

  0
ENDBLK
  5
25
330
23
100
AcDbEntity
  8
0
100
AcDbBlockEnd
  0
BLOCK
  5
90
330
8F
100
AcDbEntity
  8
0
100
AcDbBlockBegin
  2
SW_CENTERMARKSYMBOL_0
 70
     0
 10
0.0
 20
0.0
 30
0.0
  3
SW_CENTERMARKSYMBOL_0
  1

  0
LINE
  5
92
330
8F
100
AcDbEntity
  8
FORMAT
 62
     0
100
AcDbLine
 10
0.0
 20
0.0
 30
0.0
 11
0.0
 21
2.5
 31
0.0
  0
LINE
  5
93
330
8F
100
AcDbEntity
  8
FORMAT
 62
     0
100
AcDbLine
 10
0.0
 20
0.0
 30
0.0
 11
-2.5
 21
0.0
 31
0.0
  0
LINE
  5
94
330
8F
100
AcDbEntity
  8
FORMAT
 62
     0
100
AcDbLine
 10
0.0
 20
0.0
 30
0.0
 11
0.0
 21
-2.5
 31
0.0
  0
LINE
  5
95
330
8F
100
AcDbEntity
  8
FORMAT
 62
     0
100
AcDbLine
 10
0.0
 20
0.0
 30
0.0
 11
2.5
 21
0.0
 31
0.0
  0
LINE
  5
96
330
8F
100
AcDbEntity
  8
FORMAT
 62
     0
100
AcDbLine
 10
0.0
 20
5.0
 30
0.0
 11
0.0
 21
85.0
 31
0.0
  0
LINE
  5
97
330
8F
100
AcDbEntity
  8
FORMAT
 62
     0
100
AcDbLine
 10
-5.0
 20
0.0
 30
0.0
 11
-85.0
 21
0.0
 31
0.0
  0
LINE
  5
98
330
8F
100
AcDbEntity
  8
FORMAT
 62
     0
100
AcDbLine
 10
0.0
 20
-5.0
 30
0.0
 11
0.0
 21
-85.0
 31
0.0
  0
LINE
  5
99
330
8F
100
AcDbEntity
  8
FORMAT
 62
     0
100
AcDbLine
 10
5.0
 20
0.0
 30
0.0
 11
85.0
 21
0.0
 31
0.0
  0
ENDBLK
  5
91
330
8F
100
AcDbEntity
  8
0
100
AcDbBlockEnd
  0
BLOCK
  5
9C
330
9B
100
AcDbEntity
  8
0
100
AcDbBlockBegin
  2
SW_CENTERMARKSYMBOL_1
 70
     0
 10
0.0
 20
0.0
 30
0.0
  3
SW_CENTERMARKSYMBOL_1
  1

  0
LINE
  5
9E
330
9B
100
AcDbEntity
  8
FORMAT
 62
     0
100
AcDbLine
 10
0.0
 20
0.0
 30
0.0
 11
0.0
 21
2.5
 31
0.0
  0
LINE
  5
9F
330
9B
100
AcDbEntity
  8
FORMAT
 62
     0
100
AcDbLine
 10
0.0
 20
0.0
 30
0.0
 11
-2.5
 21
0.0
 31
0.0
  0
LINE
  5
A0
330
9B
100
AcDbEntity
  8
FORMAT
 62
     0
100
AcDbLine
 10
0.0
 20
0.0
 30
0.0
 11
0.0
 21
-2.5
 31
0.0
  0
LINE
  5
A1
330
9B
100
AcDbEntity
  8
FORMAT
 62
     0
100
AcDbLine
 10
0.0
 20
0.0
 30
0.0
 11
2.5
 21
0.0
 31
0.0
  0
LINE
  5
A2
330
9B
100
AcDbEntity
  8
FORMAT
 62
     0
100
AcDbLine
 10
0.0
 20
5.0
 30
0.0
 11
0.0
 21
12.5
 31
0.0
  0
LINE
  5
A3
330
9B
100
AcDbEntity
  8
FORMAT
 62
     0
100
AcDbLine
 10
-5.0
 20
0.0
 30
0.0
 11
-12.5
 21
0.0
 31
0.0
  0
LINE
  5
A4
330
9B
100
AcDbEntity
  8
FORMAT
 62
     0
100
AcDbLine
 10
0.0
 20
-5.0
 30
0.0
 11
0.0
 21
-12.5
 31
0.0
  0
LINE
  5
A5
330
9B
100
AcDbEntity
  8
FORMAT
 62
     0
100
AcDbLine
 10
5.0
 20
0.0
 30
0.0
 11
12.5
 21
0.0
 31
0.0
  0
ENDBLK
  5
9D
330
9B
100
AcDbEntity
  8
0
100
AcDbBlockEnd
  0
BLOCK
  5
A8
330
A7
100
AcDbEntity
  8
0
100
AcDbBlockBegin
  2
SW_CENTERMARKSYMBOL_2
 70
     0
 10
0.0
 20
0.0
 30
0.0
  3
SW_CENTERMARKSYMBOL_2
  1

  0
LINE
  5
AA
330
A7
100
AcDbEntity
  8
FORMAT
 62
     0
100
AcDbLine
 10
0.0
 20
0.0
 30
0.0
 11
0.0
 21
2.5
 31
0.0
  0
LINE
  5
AB
330
A7
100
AcDbEntity
  8
FORMAT
 62
     0
100
AcDbLine
 10
0.0
 20
0.0
 30
0.0
 11
-2.5
 21
0.0
 31
0.0
  0
LINE
  5
AC
330
A7
100
AcDbEntity
  8
FORMAT
 62
     0
100
AcDbLine
 10
0.0
 20
0.0
 30
0.0
 11
0.0
 21
-2.5
 31
0.0
  0
LINE
  5
AD
330
A7
100
AcDbEntity
  8
FORMAT
 62
     0
100
AcDbLine
 10
0.0
 20
0.0
 30
0.0
 11
2.5
 21
0.0
 31
0.0
  0
LINE
  5
AE
330
A7
100
AcDbEntity
  8
FORMAT
 62
     0
100
AcDbLine
 10
0.0
 20
5.0
 30
0.0
 11
0.0
 21
12.5
 31
0.0
  0
LINE
  5
AF
330
A7
100
AcDbEntity
  8
FORMAT
 62
     0
100
AcDbLine
 10
-5.0
 20
0.0
 30
0.0
 11
-12.5
 21
0.0
 31
0.0
  0
LINE
  5
B0
330
A7
100
AcDbEntity
  8
FORMAT
 62
     0
100
AcDbLine
 10
0.0
 20
-5.0
 30
0.0
 11
0.0
 21
-12.5
 31
0.0
  0
LINE
  5
B1
330
A7
100
AcDbEntity
  8
FORMAT
 62
     0
100
AcDbLine
 10
5.0
 20
0.0
 30
0.0
 11
12.5
 21
0.0
 31
0.0
  0
ENDBLK
  5
A9
330
A7
100
AcDbEntity
  8
0
100
AcDbBlockEnd
  0
BLOCK
  5
B4
330
B3
100
AcDbEntity
  8
0
100
AcDbBlockBegin
  2
SW_CENTERMARKSYMBOL_3
 70
     0
 10
0.0
 20
0.0
 30
0.0
  3
SW_CENTERMARKSYMBOL_3
  1

  0
LINE
  5
B6
330
B3
100
AcDbEntity
  8
FORMAT
 62
     0
100
AcDbLine
 10
0.0
 20
0.0
 30
0.0
 11
0.0
 21
2.5
 31
0.0
  0
LINE
  5
B7
330
B3
100
AcDbEntity
  8
FORMAT
 62
     0
100
AcDbLine
 10
0.0
 20
0.0
 30
0.0
 11
-2.5
 21
0.0
 31
0.0
  0
LINE
  5
B8
330
B3
100
AcDbEntity
  8
FORMAT
 62
     0
100
AcDbLine
 10
0.0
 20
0.0
 30
0.0
 11
0.0
 21
-2.5
 31
0.0
  0
LINE
  5
B9
330
B3
100
AcDbEntity
  8
FORMAT
 62
     0
100
AcDbLine
 10
0.0
 20
0.0
 30
0.0
 11
2.5
 21
0.0
 31
0.0
  0
LINE
  5
BA
330
B3
100
AcDbEntity
  8
FORMAT
 62
     0
100
AcDbLine
 10
0.0
 20
5.0
 30
0.0
 11
0.0
 21
12.5
 31
0.0
  0
LINE
  5
BB
330
B3
100
AcDbEntity
  8
FORMAT
 62
     0
100
AcDbLine
 10
-5.0
 20
0.0
 30
0.0
 11
-12.5
 21
0.0
 31
0.0
  0
LINE
  5
BC
330
B3
100
AcDbEntity
  8
FORMAT
 62
     0
100
AcDbLine
 10
0.0
 20
-5.0
 30
0.0
 11
0.0
 21
-12.5
 31
0.0
  0
LINE
  5
BD
330
B3
100
AcDbEntity
  8
FORMAT
 62
     0
100
AcDbLine
 10
5.0
 20
0.0
 30
0.0
 11
12.5
 21
0.0
 31
0.0
  0
ENDBLK
  5
B5
330
B3
100
AcDbEntity
  8
0
100
AcDbBlockEnd
  0
BLOCK
  5
C0
330
BF
100
AcDbEntity
  8
0
100
AcDbBlockBegin
  2
SW_CENTERMARKSYMBOL_4
 70
     0
 10
0.0
 20
0.0
 30
0.0
  3
SW_CENTERMARKSYMBOL_4
  1

  0
LINE
  5
C2
330
BF
100
AcDbEntity
  8
FORMAT
 62
     0
100
AcDbLine
 10
0.0
 20
0.0
 30
0.0
 11
0.0
 21
2.5
 31
0.0
  0
LINE
  5
C3
330
BF
100
AcDbEntity
  8
FORMAT
 62
     0
100
AcDbLine
 10
0.0
 20
0.0
 30
0.0
 11
-2.5
 21
0.0
 31
0.0
  0
LINE
  5
C4
330
BF
100
AcDbEntity
  8
FORMAT
 62
     0
100
AcDbLine
 10
0.0
 20
0.0
 30
0.0
 11
0.0
 21
-2.5
 31
0.0
  0
LINE
  5
C5
330
BF
100
AcDbEntity
  8
FORMAT
 62
     0
100
AcDbLine
 10
0.0
 20
0.0
 30
0.0
 11
2.5
 21
0.0
 31
0.0
  0
LINE
  5
C6
330
BF
100
AcDbEntity
  8
FORMAT
 62
     0
100
AcDbLine
 10
0.0
 20
5.0
 30
0.0
 11
0.0
 21
12.5
 31
0.0
  0
LINE
  5
C7
330
BF
100
AcDbEntity
  8
FORMAT
 62
     0
100
AcDbLine
 10
-5.0
 20
0.0
 30
0.0
 11
-12.5
 21
0.0
 31
0.0
  0
LINE
  5
C8
330
BF
100
AcDbEntity
  8
FORMAT
 62
     0
100
AcDbLine
 10
0.0
 20
-5.0
 30
0.0
 11
0.0
 21
-12.5
 31
0.0
  0
LINE
  5
C9
330
BF
100
AcDbEntity
  8
FORMAT
 62
     0
100
AcDbLine
 10
5.0
 20
0.0
 30
0.0
 11
12.5
 21
0.0
 31
0.0
  0
ENDBLK
  5
C1
330
BF
100
AcDbEntity
  8
0
100
AcDbBlockEnd
  0
ENDSEC
  0
SECTION
  2
ENTITIES
  0
CIRCLE
  5
83
330
1F
100
AcDbEntity
  8
0
  6
Continuous
 62
     7
370
    25
100
AcDbCircle
 10
137.8667640332
 20
43.2638469371
 30
0.0
 40
11.0
  0
CIRCLE
  5
84
330
1F
100
AcDbEntity
  8
0
  6
Continuous
 62
     7
370
    25
100
AcDbCircle
 10
137.8667640332
 20
163.8638469371
 30
0.0
 40
11.0
  0
CIRCLE
  5
85
330
1F
100
AcDbEntity
  8
0
  6
Continuous
 62
     7
370
    25
100
AcDbCircle
 10
137.8667640332
 20
103.5638469371
 30
0.0
 40
81.50000000000003
  0
CIRCLE
  5
86
330
1F
100
AcDbEntity
  8
0
  6
Continuous
 62
     7
370
    25
100
AcDbCircle
 10
137.8667640332
 20
103.5638469371
 30
0.0
 40
40.0
  0
CIRCLE
  5
87
330
1F
100
AcDbEntity
  8
0
  6
Continuous
 62
     7
370
    25
100
AcDbCircle
 10
198.1667640332
 20
103.5638469371
 30
0.0
 40
11.0
  0
CIRCLE
  5
88
330
1F
100
AcDbEntity
  8
0
  6
Continuous
 62
     7
370
    25
100
AcDbCircle
 10
77.5667640332
 20
103.5638469371
 30
0.0
 40
11.0
  0
CIRCLE
  5
89
330
1F
100
AcDbEntity
  8
0
  6
Continuous
 62
     7
370
    25
100
AcDbCircle
 10
137.8667640332
 20
103.5638469371
 30
0.0
 40
39.0
  0
CIRCLE
  5
8A
330
1F
100
AcDbEntity
  8
0
  6
Continuous
 62
     7
370
    25
100
AcDbCircle
 10
137.8667640332
 20
103.5638469371
 30
0.0
 40
82.50000000000003
  0
CIRCLE
  5
8B
330
1F
100
AcDbEntity
  8
0
  6
Continuous
 62
     7
370
    25
100
AcDbCircle
 10
137.8667640332
 20
163.8638469371
 30
0.0
 40
10.0
  0
CIRCLE
  5
8C
330
1F
100
AcDbEntity
  8
0
  6
Continuous
 62
     7
370
    25
100
AcDbCircle
 10
77.5667640332
 20
103.5638469371
 30
0.0
 40
10.00000000000001
  0
CIRCLE
  5
8D
330
1F
100
AcDbEntity
  8
0
  6
Continuous
 62
     7
370
    25
100
AcDbCircle
 10
198.1667640332
 20
103.5638469371
 30
0.0
 40
10.0
  0
CIRCLE
  5
8E
330
1F
100
AcDbEntity
  8
0
  6
Continuous
 62
     7
370
    25
100
AcDbCircle
 10
137.8667640332
 20
43.2638469371
 30
0.0
 40
10.0
  0
INSERT
  5
9A
330
1F
100
AcDbEntity
  8
FORMAT
 62
     7
100
AcDbBlockReference
  2
SW_CENTERMARKSYMBOL_0
 10
137.8667640332
 20
103.5638469371
 30
0.0
  0
INSERT
  5
A6
330
1F
100
AcDbEntity
  8
FORMAT
 62
     7
100
AcDbBlockReference
  2
SW_CENTERMARKSYMBOL_1
 10
137.8667640332
 20
163.8638469371
 30
0.0
  0
INSERT
  5
B2
330
1F
100
AcDbEntity
  8
FORMAT
 62
     7
100
AcDbBlockReference
  2
SW_CENTERMARKSYMBOL_2
 10
198.1667640332
 20
103.5638469371
 30
0.0
  0
INSERT
  5
BE
330
1F
100
AcDbEntity
  8
FORMAT
 62
     7
100
AcDbBlockReference
  2
SW_CENTERMARKSYMBOL_3
 10
137.8667640332
 20
43.2638469371
 30
0.0
  0
INSERT
  5
CA
330
1F
100
AcDbEntity
  8
FORMAT
 62
     7
100
AcDbBlockReference
  2
SW_CENTERMARKSYMBOL_4
 10
77.5667640332
 20
103.5638469371
 30
0.0
  0
LINE
  5
CB
330
1F
100
AcDbEntity
  8
0
  6
Continuous
 62
     7
370
    25
100
AcDbLine
 10
-79.2249181512
 20
186.0638469371
 30
0.0
 11
-95.2249181512
 21
186.0638469371
 31
0.0
  0
LINE
  5
CC
330
1F
100
AcDbEntity
  8
0
  6
Continuous
 62
     7
370
    25
100
AcDbLine
 10
-95.2249181512
 20
21.0638469371
 30
0.0
 11
-79.2249181512
 21
21.0638469371
 31
0.0
  0
ARC
  5
CD
330
1F
100
AcDbEntity
  8
0
  6
Continuous
 62
     7
370
    25
100
AcDbCircle
 10
-79.2249181512
 20
22.0638469371
 30
0.0
 40
1.0
100
AcDbArc
 50
270.0
 51
0.0
  0
ARC
  5
CE
330
1F
100
AcDbEntity
  8
0
  6
Continuous
 62
     7
370
    25
100
AcDbCircle
 10
-79.2249181512
 20
185.0638469371
 30
0.0
 40
1.0
100
AcDbArc
 50
0.0
 51
90.0
  0
ARC
  5
CF
330
1F
100
AcDbEntity
  8
0
  6
Continuous
 62
     7
370
    25
100
AcDbCircle
 10
-95.2249181512
 20
22.0638469371
 30
0.0
 40
1.0
100
AcDbArc
 50
180.0
 51
270.0
  0
ARC
  5
D0
330
1F
100
AcDbEntity
  8
0
  6
Continuous
 62
     7
370
    25
100
AcDbCircle
 10
-95.2249181512
 20
185.0638469371
 30
0.0
 40
1.0
100
AcDbArc
 50
90.0
 51
180.0
  0
LINE
  5
D1
330
1F
100
AcDbEntity
  8
0
  6
Continuous
 62
     7
370
    25
100
AcDbLine
 10
-78.2249181512
 20
103.5638469371
 30
0.0
 11
-78.2249181512
 21
22.0638469371
 31
0.0
  0
LINE
  5
D2
330
1F
100
AcDbEntity
  8
0
  6
Continuous
 62
     7
370
    25
100
AcDbLine
 10
-78.2249181512
 20
185.0638469371
 30
0.0
 11
-78.2249181512
 21
103.5638469371
 31
0.0
  0
LINE
  5
D3
330
1F
100
AcDbEntity
  8
0
  6
Continuous
 62
     7
370
    25
100
AcDbLine
 10
-96.2249181512
 20
103.5638469371
 30
0.0
 11
-96.2249181512
 21
185.0638469371
 31
0.0
  0
LINE
  5
D4
330
1F
100
AcDbEntity
  8
0
  6
Continuous
 62
     7
370
    25
100
AcDbLine
 10
-96.2249181512
 20
22.0638469371
 30
0.0
 11
-96.2249181512
 21
103.5638469371
 31
0.0
  0
LINE
  5
D5
330
1F
100
AcDbEntity
  8
0
  6
Continuous
 62
     1
370
    25
100
AcDbLine
 10
-95.2249181512
 20
103.5638469371
 30
0.0
 11
-95.2249181512
 21
21.0638469371
 31
0.0
  0
LINE
  5
D6
330
1F
100
AcDbEntity
  8
0
  6
Continuous
 62
     1
370
    25
100
AcDbLine
 10
-95.2249181512
 20
186.0638469371
 30
0.0
 11
-95.2249181512
 21
103.5638469371
 31
0.0
  0
LINE
  5
D7
330
1F
100
AcDbEntity
  8
0
  6
Continuous
 62
     1
370
    25
100
AcDbLine
 10
-79.2249181512
 20
103.5638469371
 30
0.0
 11
-79.2249181512
 21
186.0638469371
 31
0.0
  0
LINE
  5
D8
330
1F
100
AcDbEntity
  8
0
  6
Continuous
 62
     1
370
    25
100
AcDbLine
 10
-79.2249181512
 20
21.0638469371
 30
0.0
 11
-79.2249181512
 21
103.5638469371
 31
0.0
  0
LINE
  5
D9
330
1F
100
AcDbEntity
  8
0
  6
Continuous
 62
     7
370
    25
100
AcDbLine
 10
317.646610336
 20
21.0638469371
 30
0.0
 11
333.646610336
 21
21.0638469371
 31
0.0
  0
LINE
  5
DA
330
1F
100
AcDbEntity
  8
0
  6
Continuous
 62
     7
370
    25
100
AcDbLine
 10
333.646610336
 20
186.0638469371
 30
0.0
 11
317.646610336
 21
186.0638469371
 31
0.0
  0
ARC
  5
DB
330
1F
100
AcDbEntity
  8
0
  6
Continuous
 62
     7
370
    25
100
AcDbCircle
 10
317.646610336
 20
185.0638469371
 30
0.0
 40
1.0
100
AcDbArc
 50
90.0
 51
180.0
  0
ARC
  5
DC
330
1F
100
AcDbEntity
  8
0
  6
Continuous
 62
     7
370
    25
100
AcDbCircle
 10
317.646610336
 20
22.0638469371
 30
0.0
 40
1.0
100
AcDbArc
 50
180.0
 51
270.0
  0
ARC
  5
DD
330
1F
100
AcDbEntity
  8
0
  6
Continuous
 62
     7
370
    25
100
AcDbCircle
 10
333.646610336
 20
185.0638469371
 30
0.0
 40
1.0
100
AcDbArc
 50
0.0
 51
90.0
  0
ARC
  5
DE
330
1F
100
AcDbEntity
  8
0
  6
Continuous
 62
     7
370
    25
100
AcDbCircle
 10
333.646610336
 20
22.0638469371
 30
0.0
 40
1.0
100
AcDbArc
 50
270.0
 51
0.0
  0
LINE
  5
DF
330
1F
100
AcDbEntity
  8
0
  6
Continuous
 62
     7
370
    25
100
AcDbLine
 10
316.646610336
 20
22.0638469371
 30
0.0
 11
316.646610336
 21
185.0638469371
 31
0.0
  0
LINE
  5
E0
330
1F
100
AcDbEntity
  8
0
  6
Continuous
 62
     7
370
    25
100
AcDbLine
 10
334.646610336
 20
185.0638469371
 30
0.0
 11
334.646610336
 21
22.0638469371
 31
0.0
  0
LINE
  5
E1
330
1F
100
AcDbEntity
  8
0
  6
Continuous
 62
     1
370
    25
100
AcDbLine
 10
333.646610336
 20
21.0638469371
 30
0.0
 11
333.646610336
 21
186.0638469371
 31
0.0
  0
LINE
  5
E2
330
1F
100
AcDbEntity
  8
0
  6
Continuous
 62
     1
370
    25
100
AcDbLine
 10
317.646610336
 20
186.0638469371
 30
0.0
 11
317.646610336
 21
21.0638469371
 31
0.0
  0
LINE
  5
E3
330
1F
100
AcDbEntity
  8
0
  6
Continuous
 62
     7
370
    25
100
AcDbLine
 10
220.3667640332
 20
269.7313547618
 30
0.0
 11
220.3667640332
 21
285.7313547618
 31
0.0
  0
LINE
  5
E4
330
1F
100
AcDbEntity
  8
0
  6
Continuous
 62
     7
370
    25
100
AcDbLine
 10
55.3667640332
 20
285.7313547618
 30
0.0
 11
55.3667640332
 21
269.7313547618
 31
0.0
  0
ARC
  5
E5
330
1F
100
AcDbEntity
  8
0
  6
Continuous
 62
     7
370
    25
100
AcDbCircle
 10
56.3667640332
 20
269.7313547618
 30
0.0
 40
1.0
100
AcDbArc
 50
180.0
 51
270.0
  0
ARC
  5
E6
330
1F
100
AcDbEntity
  8
0
  6
Continuous
 62
     7
370
    25
100
AcDbCircle
 10
219.3667640332
 20
269.7313547618
 30
0.0
 40
1.0
100
AcDbArc
 50
270.0
 51
0.0
  0
ARC
  5
E7
330
1F
100
AcDbEntity
  8
0
  6
Continuous
 62
     7
370
    25
100
AcDbCircle
 10
56.3667640332
 20
285.7313547618
 30
0.0
 40
1.0
100
AcDbArc
 50
90.0
 51
180.0
  0
ARC
  5
E8
330
1F
100
AcDbEntity
  8
0
  6
Continuous
 62
     7
370
    25
100
AcDbCircle
 10
219.3667640332
 20
285.7313547618
 30
0.0
 40
1.0
100
AcDbArc
 50
0.0
 51
90.0
  0
LINE
  5
E9
330
1F
100
AcDbEntity
  8
0
  6
Continuous
 62
     7
370
    25
100
AcDbLine
 10
219.3667640332
 20
268.7313547618
 30
0.0
 11
56.3667640332
 21
268.7313547618
 31
0.0
  0
LINE
  5
EA
330
1F
100
AcDbEntity
  8
0
  6
Continuous
 62
     7
370
    25
100
AcDbLine
 10
56.3667640332
 20
286.7313547618
 30
0.0
 11
219.3667640332
 21
286.7313547618
 31
0.0
  0
LINE
  5
EB
330
1F
100
AcDbEntity
  8
0
  6
Continuous
 62
     1
370
    25
100
AcDbLine
 10
220.3667640332
 20
285.7313547618
 30
0.0
 11
55.3667640332
 21
285.7313547618
 31
0.0
  0
LINE
  5
EC
330
1F
100
AcDbEntity
  8
0
  6
Continuous
 62
     1
370
    25
100
AcDbLine
 10
55.3667640332
 20
269.7313547618
 30
0.0
 11
220.3667640332
 21
269.7313547618
 31
0.0
  0
LINE
  5
ED
330
1F
100
AcDbEntity
  8
0
  6
Continuous
 62
     7
370
    25
100
AcDbLine
 10
55.3667640332
 20
-103.4825933674
 30
0.0
 11
55.3667640332
 21
-119.4825933674
 31
0.0
  0
LINE
  5
EE
330
1F
100
AcDbEntity
  8
0
  6
Continuous
 62
     7
370
    25
100
AcDbLine
 10
220.3667640332
 20
-119.4825933674
 30
0.0
 11
220.3667640332
 21
-103.4825933674
 31
0.0
  0
ARC
  5
EF
330
1F
100
AcDbEntity
  8
0
  6
Continuous
 62
     7
370
    25
100
AcDbCircle
 10
219.3667640332
 20
-103.4825933674
 30
0.0
 40
1.0
100
AcDbArc
 50
0.0
 51
90.0
  0
ARC
  5
F0
330
1F
100
AcDbEntity
  8
0
  6
Continuous
 62
     7
370
    25
100
AcDbCircle
 10
56.3667640332
 20
-103.4825933674
 30
0.0
 40
1.0
100
AcDbArc
 50
90.0
 51
180.0
  0
ARC
  5
F1
330
1F
100
AcDbEntity
  8
0
  6
Continuous
 62
     7
370
    25
100
AcDbCircle
 10
219.3667640332
 20
-119.4825933674
 30
0.0
 40
1.0
100
AcDbArc
 50
270.0
 51
0.0
  0
ARC
  5
F2
330
1F
100
AcDbEntity
  8
0
  6
Continuous
 62
     7
370
    25
100
AcDbCircle
 10
56.3667640332
 20
-119.4825933674
 30
0.0
 40
1.0
100
AcDbArc
 50
180.0
 51
270.0
  0
LINE
  5
F3
330
1F
100
AcDbEntity
  8
0
  6
Continuous
 62
     7
370
    25
100
AcDbLine
 10
56.3667640332
 20
-102.4825933674
 30
0.0
 11
219.3667640332
 21
-102.4825933674
 31
0.0
  0
LINE
  5
F4
330
1F
100
AcDbEntity
  8
0
  6
Continuous
 62
     7
370
    25
100
AcDbLine
 10
219.3667640332
 20
-120.4825933674
 30
0.0
 11
56.3667640332
 21
-120.4825933674
 31
0.0
  0
LINE
  5
F5
330
1F
100
AcDbEntity
  8
0
  6
Continuous
 62
     1
370
    25
100
AcDbLine
 10
55.3667640332
 20
-119.4825933674
 30
0.0
 11
220.3667640332
 21
-119.4825933674
 31
0.0
  0
LINE
  5
F6
330
1F
100
AcDbEntity
  8
0
  6
Continuous
 62
     1
370
    25
100
AcDbLine
 10
220.3667640332
 20
-103.4825933674
 30
0.0
 11
55.3667640332
 21
-103.4825933674
 31
0.0
  0
SPLINE
  5
F7
330
1F
100
AcDbEntity
  8
0
  6
Continuous
 62
     7
370
    25
100
AcDbSpline
210
0.0
220
0.0
230
1.0
 70
     8
 71
     3
 72
    78
 73
    74
 74
     0
 42
0.00000001
 43
0.00000001
 40
0.0
 40
0.0
 40
0.0
 40
0.0
 40
0.0002795910272555
 40
0.014506074550517
 40
0.0287453047930511
 40
0.0430009165872647
 40
0.0572752495393782
 40
0.0715693238596139
 40
0.08588296370662
 40
0.1002150234438064
 40
0.1145636642244712
 40
0.1289266329353761
 40
0.1433015083406847
 40
0.1576858948748234
 40
0.1720775585240457
 40
0.1864745091993301
 40
0.2008750394606072
 40
0.2152777311893291
 40
0.2296814410959098
 40
0.2440850975036618
 40
0.2584880134623434
 40
0.2728897461101293
 40
0.2872899932141306
 40
0.3016885658953551
 40
0.3160853652476807
 40
0.3304803627964508
 40
0.3448735844918731
 40
0.3592650978142597
 40
0.3736550015352265
 40
0.388043417694852
 40
0.4024304853959506
 40
0.4168163560677365
 40
0.4312011899036447
 40
0.4455851532269867
 40
0.4599684165811145
 40
0.4743511533771019
 40
0.4887335389615825
 40
0.5031157499906016
 40
0.5174979640128905
 40
0.5318803190369357
 40
0.5462629744113849
 40
0.5606461088739981
 40
0.5750299010156001
 40
0.5894145287893641
 40
0.6038001687762153
 40
0.6181869950993047
 40
0.6325751778630387
 40
0.6469648809657075
 40
0.6613562591015794
 40
0.6757494537280597
 40
0.6901445877262925
 40
0.7045417584305791
 40
0.7189410286461576
 40
0.7333424152220471
 40
0.7477458747066149
 40
0.7621512856056814
 40
0.7765584268146288
 40
0.7909669519484076
 40
0.8053763596059069
 40
0.8197857814141428
 40
0.8341941267478273
 40
0.8486001334976574
 40
0.8630022455706521
 40
0.8773986018855111
 40
0.8917870503320962
 40
0.9061651985450002
 40
0.9205305135937025
 40
0.934880479906622
 40
0.9492128176018882
 40
0.9635257512996332
 40
0.9778183035200514
 40
0.9920905703642698
 40
1.0
 40
1.0
 40
1.0
 40
1.0
 10
347.6354233934478
 20
-28.80024897009254
 30
0.0
 10
347.6229985204906
 20
-28.7954777971704
 30
0.0
 10
346.9783564689687
 20
-28.54793412317849
 30
0.0
 10
345.6432977861606
 20
-28.17577004616271
 30
0.0
 10
343.6292964056986
 20
-27.69538350987569
 30
0.0
 10
341.5510425116697
 20
-27.36133698662117
 30
0.0
 10
339.4216171778202
 20
-27.15471497830158
 30
0.0
 10
337.242034918333
 20
-27.08132997865609
 30
0.0
 10
335.0167728698061
 20
-27.14008165786776
 30
0.0
 10
332.7495888651187
 20
-27.33141200531335
 30
0.0
 10
330.4446160148106
 20
-27.65500652690069
 30
0.0
 10
328.1060320003517
 20
-28.11039541547156
 30
0.0
 10
325.7381087705095
 20
-28.69678852673927
 30
0.0
 10
323.3451628246109
 20
-29.41312610099014
 30
0.0
 10
320.9315378990055
 20
-30.25807835859964
 30
0.0
 10
318.501585800052
 20
-31.23006235834752
 30
0.0
 10
316.0596542770953
 20
-32.32725515482527
 30
0.0
 10
313.6100784179787
 20
-33.54760711628915
 30
0.0
 10
311.1571850725314
 20
-34.88884794042774
 30
0.0
 10
308.7052793986367
 20
-36.34849957366697
 30
0.0
 10
306.258638155215
 20
-37.92388681248572
 30
0.0
 10
303.821497532655
 20
-39.61215247139277
 30
0.0
 10
301.3980604884405
 20
-41.4102586115757
 30
0.0
 10
298.9924974589389
 20
-43.31498932216389
 30
0.0
 10
296.6089423826367
 20
-45.32295572953786
 30
0.0
 10
294.2514881760103
 20
-47.43060098530228
 30
0.0
 10
291.9241817211843
 20
-49.63420538405
 30
0.0
 10
289.6310184453657
 20
-51.92989171561675
 30
0.0
 10
287.3759365791919
 20
-54.31363091901968
 30
0.0
 10
285.1628111796741
 20
-56.78124807656492
 30
0.0
 10
282.9954479973515
 20
-59.32842876536879
 30
0.0
 10
280.8775772590752
 20
-61.95072576831731
 30
0.0
 10
278.8128474291299
 20
-64.64356613588373
 30
0.0
 10
276.8048190030455
 20
-67.4022585830238
 30
0.0
 10
274.8569583809187
 20
-70.22200120061886
 30
0.0
 10
272.9726318605449
 20
-73.097889457822
 30
0.0
 10
271.1550997850789
 20
-76.024924469792
 30
0.0
 10
269.4075108755949
 20
-78.9980215035437
 30
0.0
 10
267.7328983322545
 20
-82.01201589127488
 30
0.0
 10
266.1341734481216
 20
-85.06167322639077
 30
0.0
 10
264.6141197331978
 20
-88.14169978836048
 30
0.0
 10
263.1753869545773
 20
-91.24675473281921
 30
0.0
 10
261.8204877366369
 20
-94.37145798916224
 30
0.0
 10
260.5517941797468
 20
-97.51039823407827
 30
0.0
 10
259.3715340853689
 20
-100.6581422455342
 30
0.0
 10
258.2817875098688
 20
-103.8092442409643
 30
0.0
 10
257.2844836550802
 20
-106.9582551562701
 30
0.0
 10
256.3813980994579
 20
-110.099731818037
 30
0.0
 10
255.5741503681965
 20
-113.2282459560959
 30
0.0
 10
254.8642018332075
 20
-116.3383929977079
 30
0.0
 10
254.2528539236712
 20
-119.4248005784428
 30
0.0
 10
253.7412466141861
 20
-122.4821366988225
 30
0.0
 10
253.3303571393573
 20
-125.5051174509503
 30
0.0
 10
253.0209988600325
 20
-128.488514237168
 30
0.0
 10
252.8138201764547
 20
-131.4271604056732
 30
0.0
 10
252.7093033468674
 20
-134.3159572393919
 30
0.0
 10
252.7077630275033
 20
-137.1498792593499
 30
0.0
 10
252.8093443026048
 20
-139.9239788477722
 30
0.0
 10
253.0140190851228
 20
-142.6333790673644
 30
0.0
 10
253.3215799332399
 20
-145.2732789161323
 30
0.0
 10
253.7316333409987
 20
-147.8389638945267
 30
0.0
 10
254.2435943208678
 20
-150.3258208012905
 30
0.0
 10
254.8566790287972
 20
-152.729342025665
 30
0.0
 10
255.5698931736938
 20
-155.0451295946953
 30
0.0
 10
256.3820243289274
 20
-157.268903253569
 30
0.0
 10
257.2916209253279
 20
-159.3965336789686
 30
0.0
 10
258.2970265336065
 20
-161.4240044864026
 30
0.0
 10
259.3962236236806
 20
-163.3476639902987
 30
0.0
 10
260.5874148256897
 20
-165.1634191769008
 30
0.0
 10
261.8668965860959
 20
-166.869883347047
 30
0.0
 10
263.2370664088182
 20
-168.4567952738368
 30
0.0
 10
264.4634384415169
 20
-169.7272918108984
 30
0.0
 10
265.264645978509
 20
-170.4208707390045
 30
0.0
 10
265.5503362386379
 20
-170.6681833705537
 30
0.0
  0
LINE
  5
F8
330
1F
100
AcDbEntity
  8
0
  6
Continuous
 62
     7
370
    25
100
AcDbLine
 10
363.9023742389
 20
-37.5859727568
 30
0.0
 11
352.5886657399
 21
-31.0547078622
 31
0.0
  0
LINE
  5
F9
330
1F
100
AcDbEntity
  8
0
  6
Continuous
 62
     7
370
    25
100
AcDbLine
 10
270.0953702974
 20
-173.9527701551
 30
0.0
 11
281.4090787964
 21
-180.4840350496
 31
0.0
  0
SPLINE
  5
FA
330
1F
100
AcDbEntity
  8
0
  6
Continuous
 62
     7
370
    25
100
AcDbSpline
210
0.0
220
0.0
230
1.0
 70
     8
 71
     3
 72
    61
 73
    57
 74
     0
 42
0.00000001
 43
0.00000001
 40
0.0
 40
0.0
 40
0.0
 40
0.0
 40
0.0165764829386159
 40
0.0351069504508439
 40
0.0536585736945663
 40
0.0722344694702409
 40
0.0908360346515794
 40
0.1094630997671102
 40
0.1281142192521903
 40
0.1467870300154795
 40
0.1654786153810507
 40
0.1841858278401755
 40
0.2029055443362568
 40
0.2216348461838117
 40
0.2403711289328473
 40
0.2591121548229566
 40
0.2778560629011005
 40
0.2966013510511602
 40
0.315346623649682
 40
0.3340909610293765
 40
0.3528337784156977
 40
0.371574675628209
 40
0.3903134013797627
 40
0.4090498226362422
 40
0.4277838989840959
 40
0.4465156616185796
 40
0.4652451964061158
 40
0.4839726304276378
 40
0.5026981214286937
 40
0.5214218496545756
 40
0.5401440116151898
 40
0.5588648153925819
 40
0.5775844771680986
 40
0.5963032187024017
 40
0.6150212655492563
 40
0.6337388458228426
 40
0.6524561893690107
 40
0.6711735272138943
 40
0.68989104214004
 40
0.7086089383088718
 40
0.727327448331089
 40
0.7460468046477835
 40
0.7647672389020511
 40
0.7834889809987996
 40
0.8022122577139627
 40
0.82093729069232
 40
0.8396642936390276
 40
0.8583934684671989
 40
0.8771250001118923
 40
0.8958590496596818
 40
0.9145957453743213
 40
0.9333351711263828
 40
0.9520773516655482
 40
0.9708222341223787
 40
0.989569665113807
 40
1.0
 40
1.0
 40
1.0
 40
1.0
 10
286.5245046117741
 20
-182.7883466169336
 30
0.0
 10
287.1049293593022
 20
-182.9761745511456
 30
0.0
 10
288.3341975295989
 20
-183.3739709959091
 30
0.0
 10
290.2857744824244
 20
-183.821971623357
 30
0.0
 10
292.3589377696372
 20
-184.1672597075986
 30
0.0
 10
294.4869817249423
 20
-184.3777911701379
 30
0.0
 10
296.6643788735194
 20
-184.4570793964062
 30
0.0
 10
298.8878728366975
 20
-184.4037087058259
 30
0.0
 10
301.1533862555009
 20
-184.2178989927749
 30
0.0
 10
303.4568786631856
 20
-183.89977244405
 30
0.0
 10
305.7941527523648
 20
-183.4498354815396
 30
0.0
 10
308.1609454910052
 20
-182.8688534836948
 30
0.0
 10
310.5529402280008
 20
-182.1578783423301
 30
0.0
 10
312.9657943714384
 20
-181.3182280738713
 30
0.0
 10
315.3951560602643
 20
-180.3514756293117
 30
0.0
 10
317.8366772131837
 20
-179.2594342139363
 30
0.0
 10
320.2860220821415
 20
-178.0441443193502
 30
0.0
 10
322.7388634858235
 20
-176.7078672328602
 30
0.0
 10
325.1908951430382
 20
-175.2530726506736
 30
0.0
 10
327.6378390723257
 20
-173.6824277624934
 30
0.0
 10
330.0754572668699
 20
-171.99878243215
 30
0.0
 10
332.4995454984562
 20
-170.2051671098943
 30
0.0
 10
334.9059319074437
 20
-168.3047904289773
 30
0.0
 10
337.2904809560312
 20
-166.3010341914145
 30
0.0
 10
339.6490979306778
 20
-164.1974483824821
 30
0.0
 10
341.977733935703
 20
-161.9977460607038
 30
0.0
 10
344.272391298646
 20
-159.7057980168807
 30
0.0
 10
346.529129300341
 20
-157.3256271335939
 30
0.0
 10
348.7440701438469
 20
-154.8614024056658
 30
0.0
 10
350.9134050823147
 20
-152.3174326035836
 30
0.0
 10
353.0334006340109
 20
-149.6981595773304
 30
0.0
 10
355.1004048214342
 20
-147.0081512088387
 30
0.0
 10
357.1108533798364
 20
-144.2520940286047
 30
0.0
 10
359.0612758880397
 20
-141.4347855168328
 30
0.0
 10
360.9483017809978
 20
-138.5611261126506
 30
0.0
 10
362.7686662091683
 20
-135.6361109568508
 30
0.0
 10
364.5192157141698
 20
-132.6648213953566
 30
0.0
 10
366.1969122295886
 20
-129.6524189009153
 30
0.0
 10
367.7988392718651
 20
-126.6041352220987
 30
0.0
 10
369.3222079375113
 20
-123.5252618040657
 30
0.0
 10
370.7643628038043
 20
-120.4211377811913
 30
0.0
 10
372.1227855067972
 20
-117.2971417269312
 30
0.0
 10
373.3950980443143
 20
-114.1586838542676
 30
0.0
 10
374.5790665586298
 20
-111.0111966652037
 30
0.0
 10
375.6726048174236
 20
-107.8601255990294
 30
0.0
 10
376.673777259081
 20
-104.7109197949207
 30
0.0
 10
377.5808020675792
 20
-101.5690227464508
 30
0.0
 10
378.392052526698
 20
-98.43986390775041
 30
0.0
 10
379.1060632005857
 20
-95.32884755061056
 30
0.0
 10
379.7215165537465
 20
-92.24135296923127
 30
0.0
 10
380.2373011442372
 20
-89.18269372469123
 30
0.0
 10
380.6523013743363
 20
-86.15823152510809
 30
0.0
 10
380.9661882887111
 20
-83.17291497083069
 30
0.0
 10
381.1764729703996
 20
-80.232967662413
 30
0.0
 10
381.2727902852816
 20
-77.76755165510421
 30
0.0
 10
381.2817325457885
 20
-76.2933604910989
 30
0.0
 10
381.2849291843563
 20
-75.7663733464582
 30
0.0
  0
SPLINE
  5
FB
330
1F
100
AcDbEntity
  8
0
  6
Continuous
 62
     7
370
    25
100
AcDbSpline
210
0.0
220
0.0
230
1.0
 70
     8
 71
     3
 72
    24
 73
    20
 74
     0
 42
0.00000001
 43
0.00000001
 40
0.0
 40
0.0
 40
0.0
 40
0.0
 40
0.0327411912493943
 40
0.094899304584932
 40
0.1570658269552458
 40
0.2192322118688995
 40
0.2813937507080587
 40
0.3435449476880097
 40
0.4056790351749429
 40
0.4677879297522906
 40
0.5298622979745752
 40
0.5918917831613217
 40
0.6538654452489612
 40
0.7157724530277166
 40
0.7776030363965699
 40
0.8393496532256054
 40
0.901008256067077
 40
0.9625794735626119
 40
1.0
 40
1.0
 40
1.0
 40
1.0
 10
381.2849291843563
 20
-75.76637334645821
 30
0.0
 10
381.2820527535351
 20
-75.27067593006244
 30
0.0
 10
381.273715510014
 20
-73.83391268763229
 30
0.0
 10
381.1810869463009
 20
-71.50152607964095
 30
0.0
 10
380.9732502764895
 20
-68.79438062572856
 30
0.0
 10
380.6611355275567
 20
-66.15762514985178
 30
0.0
 10
380.2469235938484
 20
-63.59507420813261
 30
0.0
 10
379.7307321014641
 20
-61.11159485405434
 30
0.0
 10
379.1134807571914
 20
-58.71162112907316
 30
0.0
 10
378.3961386189522
 20
-56.3995648716635
 30
0.0
 10
377.5799367891152
 20
-54.17969577286861
 30
0.0
 10
376.6663334768451
 20
-52.05613921281009
 30
0.0
 10
375.6569981071822
 20
-50.0329006580284
 30
0.0
 10
374.5539489190662
 20
-48.11363596183562
 30
0.0
 10
373.3590261570629
 20
-46.30238181541259
 30
0.0
 10
372.0758173185622
 20
-44.60068742257056
 30
0.0
 10
370.702395835133
 20
-43.01815603986732
 30
0.0
 10
369.4464035369003
 20
-41.72657911410635
 30
0.0
 10
368.615432588656
 20
-41.01233112006397
 30
0.0
 10
368.3013117427949
 20
-40.74233349317072
 30
0.0
  0
SPLINE
  5
FC
330
1F
100
AcDbEntity
  8
0
  6
Continuous
 62
     7
370
    25
100
AcDbSpline
210
0.0
220
0.0
230
1.0
 70
     8
 71
     3
 72
    14
 73
    10
 74
     0
 42
0.00000001
 43
0.00000001
 40
0.0
 40
0.0
 40
0.0
 40
0.0
 40
0.1072008895889474
 40
0.2773166074501033
 40
0.4409657486095413
 40
0.5974760961057007
 40
0.7497748457100953
 40
0.9002075101845297
 40
1.0
 40
1.0
 40
1.0
 40
1.0
 10
358.9945176506819
 20
-69.25516395667661
 30
0.0
 10
359.1066001295701
 20
-69.32047183845886
 30
0.0
 10
359.3965448578185
 20
-69.48941596089148
 30
0.0
 10
359.7837471675855
 20
-69.89908403329787
 30
0.0
 10
360.1593216329721
 20
-70.47037193263343
 30
0.0
 10
360.4464125510156
 20
-71.15064332239201
 30
0.0
 10
360.6439947251599
 20
-71.9223294114609
 30
0.0
 10
360.7442899721158
 20
-72.6798336993823
 30
0.0
 10
360.7546141312659
 20
-73.19381037965282
 30
0.0
 10
360.7587315172648
 20
-73.39878982217463
 30
0.0
  0
SPLINE
  5
FD
330
1F
100
AcDbEntity
  8
0
  6
Continuous
 62
     7
370
    25
100
AcDbSpline
210
0.0
220
0.0
230
1.0
 70
     8
 71
     3
 72
    28
 73
    24
 74
     0
 42
0.00000001
 43
0.00000001
 40
0.0
 40
0.0
 40
0.0
 40
0.0
 40
0.0256330378214991
 40
0.0747769626480789
 40
0.1240541470560486
 40
0.1734640165580903
 40
0.2229985580787792
 40
0.2726325814447887
 40
0.322333312743701
 40
0.3720649100636331
 40
0.4217877481062239
 40
0.4714544339665239
 40
0.5210273737848345
 40
0.5704702161310111
 40
0.6197510788248775
 40
0.6688497165382283
 40
0.7177718287690066
 40
0.7665755561758333
 40
0.8153768182054051
 40
0.86441478598379
 40
0.9141759922741093
 40
0.9654263384618698
 40
0.9999999999999999
 40
0.9999999999999999
 40
0.9999999999999999
 40
0.9999999999999999
 10
360.7587315172648
 20
-73.39878982217463
 30
0.0
 10
360.7561690350119
 20
-73.56348673695666
 30
0.0
 10
360.7486937353207
 20
-74.04394227760191
 30
0.0
 10
360.6643366634011
 20
-74.88816001699941
 30
0.0
 10
360.4732491594596
 20
-75.93446923035327
 30
0.0
 10
360.1865333650621
 20
-77.01238033061229
 30
0.0
 10
359.8087824373781
 20
-78.10428056868223
 30
0.0
 10
359.3442750690613
 20
-79.19393923224521
 30
0.0
 10
358.7994943570749
 20
-80.26469374809764
 30
0.0
 10
358.1823089840116
 20
-81.30030857779737
 30
0.0
 10
357.5020613277239
 20
-82.28507253358772
 30
0.0
 10
356.7693506592266
 20
-83.20418907481259
 30
0.0
 10
355.9958843096448
 20
-84.04405441340512
 30
0.0
 10
355.1942743260756
 20
-84.79256644020843
 30
0.0
 10
354.3779094844446
 20
-85.43935963804685
 30
0.0
 10
353.5607077759087
 20
-85.97615909188262
 30
0.0
 10
352.7567735130494
 20
-86.39711048483208
 30
0.0
 10
351.9799201500317
 20
-86.69920319932004
 30
0.0
 10
351.2432268664009
 20
-86.8819555719619
 30
0.0
 10
350.5560977310673
 20
-86.94957301397882
 30
0.0
 10
349.9269970355797
 20
-86.90109417582272
 30
0.0
 10
349.4146550477101
 20
-86.77633053723207
 30
0.0
 10
349.1387199592508
 20
-86.62105574034106
 30
0.0
 10
349.0275612449508
 20
-86.55850426534754
 30
0.0
  0
SPLINE
  5
FE
330
1F
100
AcDbEntity
  8
0
  6
Continuous
 62
     7
370
    25
100
AcDbSpline
210
0.0
220
0.0
230
1.0
 70
     8
 71
     3
 72
    14
 73
    10
 74
     0
 42
0.00000001
 43
0.00000001
 40
0.0
 40
0.0
 40
0.0
 40
0.0
 40
0.1072008895889114
 40
0.2773166074500683
 40
0.4409657486095149
 40
0.5974760961056589
 40
0.7497748457100547
 40
0.9002075101844996
 40
1.0
 40
1.0
 40
1.0
 40
1.0
 10
316.3559787451332
 20
-143.1072794848375
 30
0.0
 10
316.4680612240213
 20
-143.1725873666198
 30
0.0
 10
316.7580059522697
 20
-143.3415314890524
 30
0.0
 10
317.1452082620368
 20
-143.7511995614587
 30
0.0
 10
317.5207827274234
 20
-144.3224874607942
 30
0.0
 10
317.8078736454668
 20
-145.0027588505528
 30
0.0
 10
318.0054558196112
 20
-145.7744449396216
 30
0.0
 10
318.1057510665671
 20
-146.5319492275431
 30
0.0
 10
318.1160752257172
 20
-147.0459259078137
 30
0.0
 10
318.1201926117161
 20
-147.2509053503356
 30
0.0
  0
SPLINE
  5
FF
330
1F
100
AcDbEntity
  8
0
  6
Continuous
 62
     7
370
    25
100
AcDbSpline
210
0.0
220
0.0
230
1.0
 70
     8
 71
     3
 72
    28
 73
    24
 74
     0
 42
0.00000001
 43
0.00000001
 40
0.0
 40
0.0
 40
0.0
 40
0.0
 40
0.0256330378214994
 40
0.0747769626480793
 40
0.1240541470560494
 40
0.1734640165580918
 40
0.2229985580787787
 40
0.2726325814447932
 40
0.3223333127437054
 40
0.3720649100636329
 40
0.4217877481062227
 40
0.4714544339665226
 40
0.5210273737848312
 40
0.5704702161310112
 40
0.6197510788248757
 40
0.6688497165382257
 40
0.7177718287690072
 40
0.7665755561758297
 40
0.8153768182053942
 40
0.8644147859837797
 40
0.9141759922741027
 40
0.9654263384618619
 40
0.9999999999999999
 40
0.9999999999999999
 40
0.9999999999999999
 40
0.9999999999999999
 10
318.1201926117161
 20
-147.2509053503356
 30
0.0
 10
318.1176301294632
 20
-147.4156022651176
 30
0.0
 10
318.110154829772
 20
-147.8960578057628
 30
0.0
 10
318.0257977578523
 20
-148.7402755451603
 30
0.0
 10
317.8347102539109
 20
-149.7865847585142
 30
0.0
 10
317.5479944595133
 20
-150.8644958587732
 30
0.0
 10
317.1702435318293
 20
-151.9563960968432
 30
0.0
 10
316.7057361635125
 20
-153.0460547604062
 30
0.0
 10
316.1609554515261
 20
-154.1168092762586
 30
0.0
 10
315.5437700784629
 20
-155.1524241059583
 30
0.0
 10
314.8635224221753
 20
-156.1371880617486
 30
0.0
 10
314.130811753678
 20
-157.0563046029734
 30
0.0
 10
313.3573454040961
 20
-157.896169941566
 30
0.0
 10
312.5557354205269
 20
-158.6446819683693
 30
0.0
 10
311.7393705788959
 20
-159.2914751662078
 30
0.0
 10
310.9221688703601
 20
-159.8282746200435
 30
0.0
 10
310.1182346075008
 20
-160.249226012993
 30
0.0
 10
309.341381244483
 20
-160.5513187274809
 30
0.0
 10
308.6046879608524
 20
-160.7340711001228
 30
0.0
 10
307.9175588255188
 20
-160.8016885421398
 30
0.0
 10
307.2884581300311
 20
-160.7532097039837
 30
0.0
 10
306.7761161421615
 20
-160.6284460653931
 30
0.0
 10
306.5001810537022
 20
-160.4731712685021
 30
0.0
 10
306.3890223394021
 20
-160.4106197935085
 30
0.0
  0
SPLINE
  5
100
330
1F
100
AcDbEntity
  8
0
  6
Continuous
 62
     7
370
    25
100
AcDbSpline
210
0.0
220
0.0
230
1.0
 70
     8
 71
     3
 72
    20
 73
    16
 74
     0
 42
0.00000001
 43
0.00000001
 40
0.0
 40
0.0
 40
0.0
 40
0.0
 40
0.0057259417948446
 40
0.0962458160939309
 40
0.1864422329084768
 40
0.2762231500841092
 40
0.3655733616209491
 40
0.4545337351025067
 40
0.5431745918767735
 40
0.6315741074965822
 40
0.7198049733152446
 40
0.8079281399974013
 40
0.8959912046425937
 40
0.9793497459325975
 40
1.0
 40
1.0
 40
1.0
 40
1.0
 10
332.5839981244854
 20
-69.95036731752697
 30
0.0
 10
332.606559729182
 20
-69.96734742639721
 30
0.0
 10
332.985791676381
 20
-70.2527615109505
 30
0.0
 10
333.650019365187
 20
-70.91952597669626
 30
0.0
 10
334.5658912755495
 20
-71.9558769513615
 30
0.0
 10
335.3877699592324
 20
-73.1176424225089
 30
0.0
 10
336.1234770120287
 20
-74.38280023234981
 30
0.0
 10
336.7680301314167
 20
-75.75107154159522
 30
0.0
 10
337.3203015573853
 20
-77.21640575671444
 30
0.0
 10
337.7784199053435
 20
-78.77415683624261
 30
0.0
 10
338.1408126733971
 20
-80.41906793073356
 30
0.0
 10
338.4063359291443
 20
-82.14545495782154
 30
0.0
 10
338.5698857666151
 20
-83.9160004955629
 30
0.0
 10
338.6228139488716
 20
-85.274563183176
 30
0.0
 10
338.6257135663737
 20
-86.0263203835334
 30
0.0
 10
338.6262892661298
 20
-86.17557677219779
 30
0.0
  0
SPLINE
  5
101
330
1F
100
AcDbEntity
  8
0
  6
Continuous
 62
     7
370
    25
100
AcDbSpline
210
0.0
220
0.0
230
1.0
 70
     8
 71
     3
 72
    45
 73
    41
 74
     0
 42
0.00000001
 43
0.00000001
 40
0.0
 40
0.0
 40
0.0
 40
0.0
 40
0.0139815012717499
 40
0.0406193736258553
 40
0.067267771877179
 40
0.0939247426994966
 40
0.1205914748742639
 40
0.1472682745782751
 40
0.1739548361258499
 40
0.2006504400849462
 40
0.2273540940272912
 40
0.2540646301903634
 40
0.2807807715064958
 40
0.3075011748612789
 40
0.3342244582993334
 40
0.3609492172377264
 40
0.3876740335385729
 40
0.4143970198221067
 40
0.4411167316412116
 40
0.4678317393485103
 40
0.494540623538256
 40
0.5212419914884422
 40
0.5479345048006178
 40
0.5746169234079346
 40
0.6012881728275521
 40
0.627947443725859
 40
0.6545943355027758
 40
0.6812290584472315
 40
0.7078527114385799
 40
0.7344676527973859
 40
0.761077978058095
 40
0.7876882955840442
 40
0.8143063785924436
 40
0.840944021143388
 40
0.8676169986515274
 40
0.894345203404293
 40
0.9211519035257636
 40
0.9480614876684412
 40
0.9750950571880866
 40
1.0
 40
1.0
 40
1.0
 40
1.0
 10
338.6262892661298
 20
-86.17557677219779
 30
0.0
 10
338.6235255546737
 20
-86.51201981000135
 30
0.0
 10
338.6154963576619
 20
-87.48946173063213
 30
0.0
 10
338.5260284078192
 20
-89.15270899052359
 30
0.0
 10
338.3249323796215
 20
-91.17601558913896
 30
0.0
 10
338.0230839502167
 20
-93.24310668687605
 30
0.0
 10
337.6230622094819
 20
-95.34508073701619
 30
0.0
 10
337.125663191902
 20
-97.47436644270017
 30
0.0
 10
336.5326631557057
 20
-99.6228937218408
 30
0.0
 10
335.8460728955299
 20
-101.7826063458039
 30
0.0
 10
335.0683261106112
 20
-103.9453734824584
 30
0.0
 10
334.202214762824
 20
-106.1030596351136
 30
0.0
 10
333.2508904098099
 20
-108.247549795767
 30
0.0
 10
332.2178464711778
 20
-110.3707847094803
 30
0.0
 10
331.1069045207069
 20
-112.4647919008162
 30
0.0
 10
329.9221985928452
 20
-114.5217166038269
 30
0.0
 10
328.6681664115567
 20
-116.5338401706353
 30
0.0
 10
327.3495274249013
 20
-118.4936220593889
 30
0.0
 10
325.9712649483808
 20
-120.3937297615361
 30
0.0
 10
324.5385992012498
 20
-122.2270777220333
 30
0.0
 10
323.0569755513471
 20
-123.9868443016982
 30
0.0
 10
321.5320452121709
 20
-125.6664994630215
 30
0.0
 10
319.9696446765068
 20
-127.2598326740819
 30
0.0
 10
318.3757738353353
 20
-128.7609807528762
 30
0.0
 10
316.756572377992
 20
-130.1644556751045
 30
0.0
 10
315.1182939090687
 20
-131.4651722808856
 30
0.0
 10
313.4672770155303
 20
-132.6584756602099
 30
0.0
 10
311.8099123084
 20
-133.7401676902237
 30
0.0
 10
310.1526042074871
 20
-134.7065318185953
 30
0.0
 10
308.5017263046961
 20
-135.5543541563837
 30
0.0
 10
306.8636057524724
 20
-136.2809226423448
 30
0.0
 10
305.2444578777375
 20
-136.8840464433278
 30
0.0
 10
303.6503016894852
 20
-137.3620700255069
 30
0.0
 10
302.0868672129168
 20
-137.7138244730887
 30
0.0
 10
300.5594710240832
 20
-137.9386737878602
 30
0.0
 10
299.073193613424
 20
-138.0360009397619
 30
0.0
 10
297.6320279907755
 20
-138.0066530479317
 30
0.0
 10
296.2420623813434
 20
-137.8469322916942
 30
0.0
 10
294.9373413406871
 20
-137.5782747868904
 30
0.0
 10
294.1302138037647
 20
-137.299276836157
 30
0.0
 10
293.7431895274309
 20
-137.1654950296375
 30
0.0
  0
SPLINE
  5
102
330
1F
100
AcDbEntity
  8
0
  6
Continuous
 62
     7
370
    25
100
AcDbSpline
210
0.0
220
0.0
230
1.0
 70
     8
 71
     3
 72
    50
 73
    46
 74
     0
 42
0.00000001
 43
0.00000001
 40
0.0
 40
0.0
 40
0.0
 40
0.0
 40
0.0130212272380974
 40
0.0371209118334334
 40
0.0611310424665898
 40
0.085072751719327
 40
0.1089660834596956
 40
0.1328280570177131
 40
0.156672086220202
 40
0.1805081494641162
 40
0.2043426140688882
 40
0.2281795106606318
 40
0.252022300183745
 40
0.2758729758706044
 40
0.2997324680377845
 40
0.3236009566173607
 40
0.3474781039627468
 40
0.3713632236574299
 40
0.3952554000323209
 40
0.41915357079723
 40
0.4430565826738644
 40
0.466963227649872
 40
0.4908722656194686
 40
0.5147824377549541
 40
0.5386924236891293
 40
0.5626005720870791
 40
0.5865056026124786
 40
0.610406236902648
 40
0.6343012074358
 40
0.6581892734747856
 40
0.6820692476270499
 40
0.7059400378476548
 40
0.7298007112979599
 40
0.7536505884978975
 40
0.777489378616399
 40
0.8013173692820347
 40
0.825135686325597
 40
0.8489466390276215
 40
0.872754162126425
 40
0.8965623440451954
 40
0.9203788185444387
 40
0.9442146359259607
 40
0.9680844574489312
 40
0.9920065915876902
 40
1.0
 40
1.0
 40
1.0
 40
1.0
 10
298.3924749102148
 20
-138.0005850781845
 30
0.0
 10
298.2560607644306
 20
-137.7794878961605
 30
0.0
 10
297.867171346721
 20
-137.1491840967984
 30
0.0
 10
297.321295313535
 20
-135.9916658798865
 30
0.0
 10
296.7520677775499
 20
-134.5445341233318
 30
0.0
 10
296.2808933539374
 20
-132.9989116341341
 30
0.0
 10
295.9040685713344
 20
-131.3667954561818
 30
0.0
 10
295.6244222856406
 20
-129.6518647099791
 30
0.0
 10
295.4427908784903
 20
-127.8604960665277
 30
0.0
 10
295.3602225929992
 20
-125.998863394695
 30
0.0
 10
295.3773155432231
 20
-124.0737039356608
 30
0.0
 10
295.4943371186258
 20
-122.0920403186163
 30
0.0
 10
295.7111619031056
 20
-120.0611721303773
 30
0.0
 10
296.0272763403269
 20
-117.9886132765248
 30
0.0
 10
296.441766827178
 20
-115.8820868742328
 30
0.0
 10
296.9533192211455
 20
-113.7494789772117
 30
0.0
 10
297.5602224452085
 20
-111.5987960896586
 30
0.0
 10
298.2603760046836
 20
-109.4381249097408
 30
0.0
 10
299.0512999613527
 20
-107.275594565669
 30
0.0
 10
299.9301467125384
 20
-105.119340885329
 30
0.0
 10
300.893714057389
 20
-102.9774723763935
 30
0.0
 10
301.9384592452437
 20
-100.8580375848299
 30
0.0
 10
303.0605138135318
 20
-98.76899356359456
 30
0.0
 10
304.2556982656808
 20
-96.71817667293533
 30
0.0
 10
305.5195322376676
 20
-94.71328153842148
 30
0.0
 10
306.8472563635477
 20
-92.76181994582838
 30
0.0
 10
308.2338510881306
 20
-90.87109010056822
 30
0.0
 10
309.6740620874391
 20
-89.04814023289607
 30
0.0
 10
311.1624124796715
 20
-87.29975085935128
 30
0.0
 10
312.6932224909801
 20
-85.63240678570592
 30
0.0
 10
314.2606301941852
 20
-84.0522692173516
 30
0.0
 10
315.8586136176366
 20
-82.5651479111201
 30
0.0
 10
317.4810146266854
 20
-81.17647340994328
 30
0.0
 10
319.1215652553652
 20
-79.89126923578685
 30
0.0
 10
320.7739169654667
 20
-78.71412506658626
 30
0.0
 10
322.4316750388697
 20
-77.64916859763636
 30
0.0
 10
324.0884348940623
 20
-76.70004782881801
 30
0.0
 10
325.7378381482906
 20
-75.86988575472277
 30
0.0
 10
327.3735419257313
 20
-75.1613788737828
 30
0.0
 10
328.989444446654
 20
-74.5764238443336
 30
0.0
 10
330.5792263098808
 20
-74.11740571630638
 30
0.0
 10
332.1384624896754
 20
-73.78241092306429
 30
0.0
 10
333.6572152870596
 20
-73.5832763700656
 30
0.0
 10
334.8156738273248
 20
-73.50180504146338
 30
0.0
 10
335.4482907012785
 20
-73.52949317873603
 30
0.0
 10
335.6067327842837
 20
-73.53642781220005
 30
0.0
  0
SPLINE
  5
103
330
1F
100
AcDbEntity
  8
0
  6
Continuous
 62
     7
370
    25
100
AcDbSpline
210
0.0
220
0.0
230
1.0
 70
     8
 71
     3
 72
    14
 73
    10
 74
     0
 42
0.00000001
 43
0.00000001
 40
0.0
 40
0.0
 40
0.0
 40
0.0
 40
0.1072008895889112
 40
0.2773166074500689
 40
0.4409657486095119
 40
0.5974760961056551
 40
0.7497748457100586
 40
0.9002075101845011
 40
1.0
 40
1.0
 40
1.0
 40
1.0
 10
316.3559787451371
 20
-44.63245757141836
 30
0.0
 10
316.4680612240252
 20
-44.69776545320056
 30
0.0
 10
316.7580059522736
 20
-44.8667095756332
 30
0.0
 10
317.1452082620406
 20
-45.27637764803946
 30
0.0
 10
317.5207827274272
 20
-45.84766554737504
 30
0.0
 10
317.8078736454706
 20
-46.52793693713356
 30
0.0
 10
318.0054558196151
 20
-47.29962302620246
 30
0.0
 10
318.105751066571
 20
-48.0571273141239
 30
0.0
 10
318.116075225721
 20
-48.5711039943945
 30
0.0
 10
318.12019261172
 20
-48.77608343691638
 30
0.0
  0
SPLINE
  5
104
330
1F
100
AcDbEntity
  8
0
  6
Continuous
 62
     7
370
    25
100
AcDbSpline
210
0.0
220
0.0
230
1.0
 70
     8
 71
     3
 72
    28
 73
    24
 74
     0
 42
0.00000001
 43
0.00000001
 40
0.0
 40
0.0
 40
0.0
 40
0.0
 40
0.0256330378214994
 40
0.074776962648079
 40
0.1240541470560492
 40
0.1734640165580921
 40
0.2229985580787807
 40
0.2726325814447929
 40
0.322333312743705
 40
0.3720649100636311
 40
0.4217877481062195
 40
0.4714544339665195
 40
0.5210273737848318
 40
0.5704702161310076
 40
0.619751078824875
 40
0.6688497165382233
 40
0.7177718287690013
 40
0.7665755561758288
 40
0.815376818205401
 40
0.8644147859837843
 40
0.9141759922741022
 40
0.9654263384618633
 40
0.9999999999999999
 40
0.9999999999999999
 40
0.9999999999999999
 40
0.9999999999999999
 10
318.12019261172
 20
-48.77608343691638
 30
0.0
 10
318.117630129467
 20
-48.94078035169838
 30
0.0
 10
318.1101548297759
 20
-49.42123589234366
 30
0.0
 10
318.0257977578562
 20
-50.26545363174114
 30
0.0
 10
317.8347102539147
 20
-51.31176284509502
 30
0.0
 10
317.5479944595173
 20
-52.38967394535408
 30
0.0
 10
317.1702435318332
 20
-53.48157418342402
 30
0.0
 10
316.7057361635165
 20
-54.57123284698699
 30
0.0
 10
316.1609554515301
 20
-55.64198736283942
 30
0.0
 10
315.5437700784668
 20
-56.67760219253906
 30
0.0
 10
314.8635224221792
 20
-57.66236614832938
 30
0.0
 10
314.1308117536818
 20
-58.58148268955422
 30
0.0
 10
313.3573454041
 20
-59.42134802814677
 30
0.0
 10
312.5557354205308
 20
-60.16986005495012
 30
0.0
 10
311.7393705788998
 20
-60.81665325278853
 30
0.0
 10
310.9221688703639
 20
-61.35345270662432
 30
0.0
 10
310.1182346075046
 20
-61.77440409957376
 30
0.0
 10
309.3413812444869
 20
-62.07649681406177
 30
0.0
 10
308.6046879608562
 20
-62.25924918670361
 30
0.0
 10
307.9175588255226
 20
-62.32686662872057
 30
0.0
 10
307.2884581300349
 20
-62.27838779056449
 30
0.0
 10
306.7761161421653
 20
-62.15362415197386
 30
0.0
 10
306.5001810537061
 20
-61.99834935508286
 30
0.0
 10
306.389022339406
 20
-61.93579788008931
 30
0.0
  0
SPLINE
  5
105
330
1F
100
AcDbEntity
  8
0
  6
Continuous
 62
     7
370
    25
100
AcDbSpline
210
0.0
220
0.0
230
1.0
 70
     8
 71
     3
 72
    14
 73
    10
 74
     0
 42
0.00000001
 43
0.00000001
 40
0.0
 40
0.0
 40
0.0
 40
0.0
 40
0.1072008895889572
 40
0.2773166074501145
 40
0.4409657486095631
 40
0.5974760961057095
 40
0.7497748457101
 40
0.9002075101845517
 40
1.0
 40
1.0
 40
1.0
 40
1.0
 10
273.7174398395883
 20
-118.4845730995793
 30
0.0
 10
273.8295223184765
 20
-118.5498809813615
 30
0.0
 10
274.1194670467249
 20
-118.7188251037942
 30
0.0
 10
274.506669356492
 20
-119.1284931762006
 30
0.0
 10
274.8822438218785
 20
-119.6997810755362
 30
0.0
 10
275.169334739922
 20
-120.3800524652948
 30
0.0
 10
275.3669169140664
 20
-121.1517385543636
 30
0.0
 10
275.4672121610222
 20
-121.909242842285
 30
0.0
 10
275.4775363201724
 20
-122.4232195225555
 30
0.0
 10
275.4816537061712
 20
-122.6281989650773
 30
0.0
  0
SPLINE
  5
106
330
1F
100
AcDbEntity
  8
0
  6
Continuous
 62
     7
370
    25
100
AcDbSpline
210
0.0
220
0.0
230
1.0
 70
     8
 71
     3
 72
    28
 73
    24
 74
     0
 42
0.00000001
 43
0.00000001
 40
0.0
 40
0.0
 40
0.0
 40
0.0
 40
0.0256330378214991
 40
0.0747769626480874
 40
0.1240541470560558
 40
0.173464016558099
 40
0.2229985580787866
 40
0.2726325814447993
 40
0.3223333127437102
 40
0.3720649100636382
 40
0.4217877481062295
 40
0.4714544339665284
 40
0.5210273737848373
 40
0.5704702161310143
 40
0.6197510788248806
 40
0.6688497165382304
 40
0.7177718287690091
 40
0.766575556175835
 40
0.8153768182054059
 40
0.8644147859837897
 40
0.9141759922741107
 40
0.965426338461872
 40
1.0
 40
1.0
 40
1.0
 40
1.0
 10
275.4816537061712
 20
-122.6281989650773
 30
0.0
 10
275.4790912239183
 20
-122.7928958798593
 30
0.0
 10
275.4716159242271
 20
-123.2733514205047
 30
0.0
 10
275.3872588523074
 20
-124.1175691599022
 30
0.0
 10
275.196171348366
 20
-125.1638783732561
 30
0.0
 10
274.9094555539684
 20
-126.2417894735152
 30
0.0
 10
274.5317046262844
 20
-127.3336897115851
 30
0.0
 10
274.0671972579676
 20
-128.4233483751481
 30
0.0
 10
273.5224165459812
 20
-129.4941028910005
 30
0.0
 10
272.9052311729179
 20
-130.5297177207002
 30
0.0
 10
272.2249835166303
 20
-131.5144816764905
 30
0.0
 10
271.4922728481329
 20
-132.4335982177154
 30
0.0
 10
270.7188064985511
 20
-133.2734635563079
 30
0.0
 10
269.9171965149819
 20
-134.0219755831112
 30
0.0
 10
269.1008316733509
 20
-134.6687687809496
 30
0.0
 10
268.283629964815
 20
-135.2055682347853
 30
0.0
 10
267.4796957019557
 20
-135.6265196277348
 30
0.0
 10
266.702842338938
 20
-135.9286123422227
 30
0.0
 10
265.9661490553073
 20
-136.1113647148646
 30
0.0
 10
265.2790199199737
 20
-136.1789821568815
 30
0.0
 10
264.649919224486
 20
-136.1305033187254
 30
0.0
 10
264.1375772366164
 20
-136.0057396801348
 30
0.0
 10
263.8616421481572
 20
-135.8504648832437
 30
0.0
 10
263.7504834338572
 20
-135.7879134082502
 30
0.0
  0
LWPOLYLINE
  5
107
330
1F
100
AcDbEntity
  8
0
  6
Continuous
 62
     7
370
    25
100
AcDbPolyline
 90
      142
 70
   128
 43
0.0
 10
368.2641139042
 20
-68.826904396
 10
368.2069051804
 20
-65.8954230252
 10
368.0353925918
 20
-63.0358136259
 10
367.7499166608
 20
-60.2537536877
 10
367.3510441732
 20
-57.5547667331
 10
366.8395670536
 20
-54.944211351
 10
366.2165007925
 20
-52.4272705573
 10
365.4830824301
 20
-50.0089415051
 10
364.6407681009
 20
-47.6940255628
 10
363.6912301418
 20
-45.4871187817
 10
362.6363537727
 20
-43.3926027711
 10
361.478233353
 20
-41.4146359985
 10
360.2191682234
 20
-39.5571455338
 10
358.8616581414
 20
-37.8238192526
 10
357.4083983174
 20
-36.2180985135
 10
355.8622740644
 20
-34.7431713267
 10
354.226355069
 20
-33.4019660233
 10
352.5038892968
 20
-32.1971454425
 10
350.6982965443
 20
-31.131101644
 10
348.8131616487
 20
-30.205951159
 10
346.8522273709
 20
-29.4235307883
 10
344.8193869643
 20
-28.7853939549
 10
342.7186764454
 20
-28.2928076206
 10
340.5542665805
 20
-27.9467497699
 10
338.3304546051
 20
-27.7479074687
 10
336.0516556919
 20
-27.6966754999
 10
333.7223941853
 20
-27.7931555798
 10
331.3472946183
 20
-28.0371561562
 10
328.9310725314
 20
-28.4281927886
 10
326.4785251098
 20
-28.9654891099
 10
323.9945216595
 20
-29.6479783679
 10
321.4839939392
 20
-30.4743055435
 10
318.9519263695
 20
-31.4428300404
 10
316.4033461362
 20
-32.5516289431
 10
313.8433132092
 20
-33.7985008339
 10
311.2769102972
 20
-35.180970164
 10
308.7092327554
 20
-36.6962921686
 10
306.14537847
 20
-38.3414583161
 10
303.5904377364
 20
-40.1132022814
 10
301.0494831528
 20
-42.0080064309
 10
298.5275595494
 20
-44.0221088063
 10
296.0296739721
 20
-46.1515105938
 10
293.5607857414
 20
-48.3919840632
 10
291.1257966065
 20
-50.7390809619
 10
288.7295410128
 20
-53.1881413461
 10
286.376776504
 20
-55.7343028334
 10
284.0721742763
 20
-58.3725102555
 10
281.8203099041
 20
-61.0975256961
 10
279.6256542557
 20
-63.903938889
 10
277.4925646166
 20
-66.7861779608
 10
275.4252760389
 20
-69.7385204924
 10
273.4278929327
 20
-72.7551048812
 10
271.5043809174
 20
-75.829941978
 10
269.6585589479
 20
-78.9569269784
 10
267.8940917329
 20
-82.1298515431
 10
266.2144824588
 20
-85.3424161241
 10
264.6230658342
 20
-88.5882424718
 10
263.1230014697
 20
-91.8608862984
 10
261.7172676041
 20
-95.1538500726
 10
260.4086551919
 20
-98.4605959196
 10
259.1997623619
 20
-101.7745586015
 10
258.0929892589
 20
-105.0891585522
 10
257.0905332785
 20
-108.3978149405
 10
256.1943847042
 20
-111.6939587351
 10
255.4063227562
 20
-114.9710457478
 10
254.7279120583
 20
-118.2225696257
 10
254.1604995323
 20
-121.442074769
 10
253.7052117233
 20
-124.6231691483
 10
253.3629525629
 20
-127.7595369951
 10
253.1344015752
 20
-130.8449513415
 10
253.0200125269
 20
-133.8732863828
 10
253.0200125269
 20
-136.8385296401
 10
253.1344015752
 20
-139.7347938974
 10
253.3629525629
 20
-142.5563288902
 10
253.7052117233
 20
-145.2975327218
 10
254.1604995323
 20
-147.9529629858
 10
254.7279120583
 20
-150.5173475712
 10
255.4063227562
 20
-152.9855951298
 10
256.1943847042
 20
-155.3528051846
 10
257.0905332785
 20
-157.614277859
 10
258.0929892589
 20
-159.7655232084
 10
259.1997623619
 20
-161.8022701344
 10
260.4086551919
 20
-163.7204748643
 10
261.7172676041
 20
-165.5163289804
 10
263.1230014697
 20
-167.1862669804
 10
264.6230658342
 20
-168.726973357
 10
266.2144824588
 20
-170.1353891804
 10
267.8940917329
 20
-171.4087181713
 10
269.6585589479
 20
-172.5444322528
 10
271.5043809174
 20
-173.5402765699
 10
273.4278929327
 20
-174.3942739656
 10
275.4252760389
 20
-175.1047289074
 10
277.4925646166
 20
-175.6702308526
 10
279.6256542557
 20
-176.0896570495
 10
281.8203099041
 20
-176.3621747662
 10
284.0721742763
 20
-176.487242944
 10
286.376776504
 20
-176.4646132716
 10
288.7295410128
 20
-176.2943306781
 10
291.1257966065
 20
-175.9767332439
 10
293.5607857414
 20
-175.5124515292
 10
296.0296739721
 20
-174.9024073225
 10
298.5275595494
 20
-174.14781181
 10
301.0494831528
 20
-173.2501631713
 10
303.5904377364
 20
-172.2112436047
 10
306.14537847
 20
-171.0331157887
 10
308.7092327554
 20
-169.7181187871
 10
311.2769102972
 20
-168.2688634048
 10
313.8433132092
 20
-166.6882270042
 10
316.4033461362
 20
-164.9793477924
 10
318.9519263695
 20
-163.1456185911
 10
321.4839939392
 20
-161.1906800998
 10
323.9945216595
 20
-159.1184136679
 10
326.4785251098
 20
-156.9329335885
 10
328.9310725314
 20
-154.6385789302
 10
331.3472946183
 20
-152.2399049217
 10
333.7223941853
 20
-149.7416739082
 10
336.0516556919
 20
-147.1488458961
 10
338.3304546051
 20
-144.4665687055
 10
340.5542665805
 20
-141.7001677495
 10
342.7186764454
 20
-138.8551354609
 10
344.8193869643
 20
-135.9371203882
 10
346.8522273709
 20
-132.9519159802
 10
348.8131616487
 20
-129.9054490838
 10
350.6982965443
 20
-126.8037681771
 10
352.5038892968
 20
-123.6530313605
 10
354.226355069
 20
-120.4594941302
 10
355.8622740644
 20
-117.2294969588
 10
357.4083983174
 20
-113.9694527067
 10
358.8616581414
 20
-110.68583389
 10
360.2191682234
 20
-107.3851598299
 10
361.478233353
 20
-104.0739837093
 10
362.6363537727
 20
-100.7588795617
 10
363.6912301418
 20
-97.4464292198
 10
364.6407681009
 20
-94.1432092469
 10
365.4830824301
 20
-90.8557778806
 10
366.2165007925
 20
-87.5906620116
 10
366.8395670536
 20
-84.3543442252
 10
367.3510441732
 20
-81.1532499307
 10
367.7499166608
 20
-77.9937346047
 10
368.0353925918
 20
-74.8820711723
 10
368.2069051804
 20
-71.8244375532
 10
368.2641139042
 20
-68.826904396
  0
ARC
  5
108
330
1F
100
AcDbEntity
  8
0
  6
Continuous
 62
     7
370
    25
100
AcDbCircle
 10
283.9651216624
 20
-149.9256200904
 30
0.0
 40
27.74169718139791
100
AcDbArc
 50
228.6730087151
 51
250.4666861621
  0
ARC
  5
109
330
1F
100
AcDbEntity
  8
0
  6
Continuous
 62
     7
370
    25
100
AcDbCircle
 10
338.7156334159
 20
-55.0863532718
 30
0.0
 40
27.74716799841648
100
AcDbArc
 50
48.8679620867
 51
70.9960413625
  0
ARC
  5
10A
330
1F
100
AcDbEntity
  8
0
  6
Continuous
 62
     7
370
    25
100
AcDbCircle
 10
349.990346176
 20
-61.6594193146
 30
0.0
 40
27.80423266324324
100
AcDbArc
 50
49.063083506
 51
59.9764124827
  0
ARC
  5
10B
330
1F
100
AcDbEntity
  8
0
  6
Continuous
 62
     7
370
    25
100
AcDbCircle
 10
295.3104429191
 20
-156.3744183938
 30
0.0
 40
27.83022708788945
100
AcDbArc
 50
240.0326804622
 51
251.3325931977
  0
LWPOLYLINE
  5
10C
330
1F
100
AcDbEntity
  8
0
  6
Continuous
 62
     7
370
    25
100
AcDbPolyline
 90
       53
 70
   128
 43
0.0
 10
318.4130858305
 20
-146.8427012944
 10
318.3563741803
 20
-147.9580945396
 10
318.1870662131
 20
-149.1227007172
 10
317.9076308204
 20
-150.3195372468
 10
317.5221427995
 20
-151.5311515566
 10
317.0362234337
 20
-152.7398755819
 10
316.4569585215
 20
-153.9280834043
 10
315.7927950499
 20
-155.0784482784
 10
315.0534180177
 20
-156.1741952937
 10
314.2496092071
 20
-157.1993459915
 10
313.3930899604
 20
-158.1389513662
 10
312.4963502572
 20
-158.9793098554
 10
311.5724665814
 20
-159.7081671403
 10
310.6349112375
 20
-160.3148948402
 10
309.6973558936
 20
-160.7906454991
 10
308.7734722178
 20
-161.1284816012
 10
307.8767325145
 20
-161.3234767352
 10
307.0202132679
 20
-161.372787433
 10
306.2164044572
 20
-161.2756946337
 10
305.4770274251
 20
-161.0336141689
 10
304.8128639534
 20
-160.6500761169
 10
304.2335990413
 20
-160.130673326
 10
303.7476796755
 20
-159.4829798587
 10
303.3621916545
 20
-158.7164405441
 10
303.0827562618
 20
-157.8422332516
 10
302.9134482947
 20
-156.873105892
 10
302.8567366444
 20
-155.8231905245
 10
302.9134482947
 20
-154.7077972793
 10
303.0827562618
 20
-153.5431911017
 10
303.3621916545
 20
-152.3463545721
 10
303.7476796755
 20
-151.1347402622
 10
304.2335990413
 20
-149.926016237
 10
304.8128639534
 20
-148.7378084146
 10
305.4770274251
 20
-147.5874435405
 10
306.2164044572
 20
-146.4916965252
 10
307.0202132679
 20
-145.4665458274
 10
307.8767325145
 20
-144.5269404527
 10
308.7734722178
 20
-143.6865819635
 10
309.6973558936
 20
-142.9577246786
 10
310.6349112375
 20
-142.3509969787
 10
311.5724665814
 20
-141.8752463198
 10
312.4963502572
 20
-141.5374102177
 10
313.3930899604
 20
-141.3424150837
 10
314.2496092071
 20
-141.2931043859
 10
315.0534180177
 20
-141.3901971852
 10
315.7927950499
 20
-141.63227765
 10
316.4569585215
 20
-142.015815702
 10
317.0362234337
 20
-142.5352184929
 10
317.5221427995
 20
-143.1829119602
 10
317.9076308204
 20
-143.9494512748
 10
318.1870662131
 20
-144.8236585673
 10
318.3563741803
 20
-145.7927859269
 10
318.4130858305
 20
-146.8427012944
  0
LWPOLYLINE
  5
10D
330
1F
100
AcDbEntity
  8
0
  6
Continuous
 62
     7
370
    25
100
AcDbPolyline
 90
       53
 70
   128
 43
0.0
 10
318.4130858305
 20
-48.367879381
 10
318.3563741803
 20
-49.4832726262
 10
318.1870662131
 20
-50.6478788038
 10
317.9076308204
 20
-51.8447153334
 10
317.5221427995
 20
-53.0563296432
 10
317.0362234337
 20
-54.2650536684
 10
316.4569585215
 20
-55.4532614909
 10
315.7927950499
 20
-56.6036263649
 10
315.0534180177
 20
-57.6993733803
 10
314.2496092071
 20
-58.7245240781
 10
313.3930899604
 20
-59.6641294527
 10
312.4963502572
 20
-60.504487942
 10
311.5724665814
 20
-61.2333452268
 10
310.6349112375
 20
-61.8400729268
 10
309.6973558936
 20
-62.3158235857
 10
308.7734722178
 20
-62.6536596877
 10
307.8767325145
 20
-62.8486548218
 10
307.0202132679
 20
-62.8979655196
 10
306.2164044572
 20
-62.8008727203
 10
305.4770274251
 20
-62.5587922555
 10
304.8128639534
 20
-62.1752542034
 10
304.2335990413
 20
-61.6558514126
 10
303.7476796755
 20
-61.0081579453
 10
303.3621916545
 20
-60.2416186307
 10
303.0827562618
 20
-59.3674113382
 10
302.9134482947
 20
-58.3982839786
 10
302.8567366444
 20
-57.3483686111
 10
302.9134482947
 20
-56.2329753659
 10
303.0827562618
 20
-55.0683691883
 10
303.3621916545
 20
-53.8715326587
 10
303.7476796755
 20
-52.6599183488
 10
304.2335990413
 20
-51.4511943236
 10
304.8128639534
 20
-50.2629865012
 10
305.4770274251
 20
-49.1126216271
 10
306.2164044572
 20
-48.0168746117
 10
307.0202132679
 20
-46.9917239139
 10
307.8767325145
 20
-46.0521185393
 10
308.7734722178
 20
-45.21176005
 10
309.6973558936
 20
-44.4829027652
 10
310.6349112375
 20
-43.8761750653
 10
311.5724665814
 20
-43.4004244064
 10
312.4963502572
 20
-43.0625883043
 10
313.3930899604
 20
-42.8675931703
 10
314.2496092071
 20
-42.8182824724
 10
315.0534180177
 20
-42.9153752718
 10
315.7927950499
 20
-43.1574557366
 10
316.4569585215
 20
-43.5409937886
 10
317.0362234337
 20
-44.0603965795
 10
317.5221427995
 20
-44.7080900468
 10
317.9076308204
 20
-45.4746293613
 10
318.1870662131
 20
-46.3488366539
 10
318.3563741803
 20
-47.3179640135
 10
318.4130858305
 20
-48.367879381
  0
LWPOLYLINE
  5
10E
330
1F
100
AcDbEntity
  8
0
  6
Continuous
 62
     7
370
    25
100
AcDbPolyline
 90
      100
 70
   128
 43
0.0
 10
338.9191824849
 20
-85.7673727163
 10
338.8622370962
 20
-87.8717753435
 10
338.6916302288
 20
-90.0334520304
 10
338.4080488565
 20
-92.243698468
 10
338.0126348614
 20
-94.493614774
 10
337.506980436
 20
-96.7741413295
 10
336.8931216724
 20
-99.076095259
 10
336.1735303629
 20
-101.3902074065
 10
335.3511040479
 20
-103.707159659
 10
334.429154348
 20
-106.0176224676
 10
333.411393629
 20
-108.3122924141
 10
332.3019200543
 20
-110.5819296725
 10
331.1052010823
 20
-112.8173952146
 10
329.8260554779
 20
-115.0096876095
 10
328.4696339091
 20
-117.1499792698
 10
327.0413982068
 20
-119.2296519961
 10
325.5470993719
 20
-121.2403316804
 10
323.9927544187
 20
-123.1739220254
 10
322.3846221455
 20
-125.0226371451
 10
320.7291779335
 20
-126.7790329163
 10
319.0330876722
 20
-128.4360369531
 10
317.3031809184
 20
-129.986977085
 10
315.5464233962
 20
-131.4256082236
 10
313.7698889481
 20
-132.7461375089
 10
311.9807310511
 20
-133.9432476358
 10
310.1861540128
 20
-135.012118264
 10
308.3933839614
 20
-135.948445429
 10
306.6096397492
 20
-136.7484588717
 10
304.8421038846
 20
-137.4089372203
 10
303.0978936107
 20
-137.9272209616
 10
301.3840322467
 20
-138.30122315
 10
299.7074209072
 20
-138.5294378105
 10
298.0748107146
 20
-138.6109460033
 10
296.4927756138
 20
-138.5454195238
 10
294.9676859017
 20
-138.3331222238
 10
293.5056825764
 20
-137.9749089497
 10
292.1126526093
 20
-137.4722220999
 10
290.7942052403
 20
-136.827085817
 10
289.5556493918
 20
-136.042097837
 10
288.4019722909
 20
-135.1204190295
 10
287.3378193881
 20
-134.0657606697
 10
286.3674756517
 20
-132.8823694947
 10
285.4948483134
 20
-131.575010603
 10
284.7234511354
 20
-130.1489482675
 10
284.0563902619
 20
-128.6099247378
 10
283.4963517117
 20
-126.9641371186
 10
283.0455905624
 20
-125.2182124156
 10
282.7059218699
 20
-123.3791808515
 10
282.4787133602
 20
-121.4544475573
 10
282.3648799218
 20
-119.4517627547
 10
282.3648799218
 20
-117.3791905484
 10
282.4787133602
 20
-115.2450764554
 10
282.7059218699
 20
-113.0580137997
 10
283.0455905624
 20
-110.8268091109
 10
283.4963517117
 20
-108.5604466627
 10
284.0563902619
 20
-106.2680522968
 10
284.7234511354
 20
-103.9588566763
 10
285.4948483134
 20
-101.6421581167
 10
286.3674756517
 20
-99.3272851457
 10
287.3378193881
 20
-97.0235589396
 10
288.4019722909
 20
-94.7402557908
 10
289.5556493918
 20
-92.4865697552
 10
290.7942052403
 20
-90.2715756311
 10
292.1126526093
 20
-88.1041924179
 10
293.5056825764
 20
-85.9931474029
 10
294.9676859017
 20
-83.9469410194
 10
296.4927756138
 20
-81.9738126182
 10
298.0748107146
 20
-80.081707291
 10
299.7074209072
 20
-78.2782438781
 10
301.3840322467
 20
-76.5706842903
 10
303.0978936107
 20
-74.9659042672
 10
304.8421038846
 20
-73.4703656917
 10
306.6096397492
 20
-72.0900905697
 10
308.3933839614
 20
-70.830636782
 10
310.1861540128
 20
-69.6970757045
 10
311.9807310511
 20
-68.6939717875
 10
313.7698889481
 20
-67.8253641766
 10
315.5464233962
 20
-67.0947504479
 10
317.3031809184
 20
-66.5050725251
 10
319.0330876722
 20
-66.0587048331
 10
320.7291779335
 20
-65.7574447369
 10
322.3846221455
 20
-65.6025053048
 10
323.9927544187
 20
-65.5945104231
 10
325.5470993719
 20
-65.7334922844
 10
327.0413982068
 20
-66.0188912577
 10
328.4696339091
 20
-66.4495581422
 10
329.8260554779
 20
-67.0237587942
 10
331.1052010823
 20
-67.7391811105
 10
332.3019200543
 20
-68.5929443378
 10
333.411393629
 20
-69.581610673
 10
334.429154348
 20
-70.7011991057
 10
335.3511040479
 20
-71.9472014485
 10
336.1735303629
 20
-73.3146004895
 10
336.8931216724
 20
-74.7978901956
 10
337.506980436
 20
-76.3910978827
 10
338.0126348614
 20
-78.0878082655
 10
338.4080488565
 20
-79.8811892904
 10
338.6916302288
 20
-81.7640196448
 10
338.8622370962
 20
-83.7287178355
 10
338.9191824849
 20
-85.7673727163
  0
LWPOLYLINE
  5
10F
330
1F
100
AcDbEntity
  8
0
  6
Continuous
 62
     7
370
    25
100
AcDbPolyline
 90
       53
 70
   128
 43
0.0
 10
361.0516247361
 20
-72.9905857663
 10
360.9949130858
 20
-74.1059790114
 10
360.8256051187
 20
-75.270585189
 10
360.546169726
 20
-76.4674217186
 10
360.160681705
 20
-77.6790360285
 10
359.6747623392
 20
-78.8877600537
 10
359.0954974271
 20
-80.0759678762
 10
358.4313339554
 20
-81.2263327502
 10
357.6919569233
 20
-82.3220797656
 10
356.8881481126
 20
-83.3472304634
 10
356.031628866
 20
-84.286835838
 10
355.1348891627
 20
-85.1271943273
 10
354.2110054869
 20
-85.8560516121
 10
353.273450143
 20
-86.462779312
 10
352.3358947991
 20
-86.938529971
 10
351.4120111233
 20
-87.276366073
 10
350.5152714201
 20
-87.471361207
 10
349.6587521734
 20
-87.5206719049
 10
348.8549433628
 20
-87.4235791056
 10
348.1155663306
 20
-87.1814986407
 10
347.451402859
 20
-86.7979605887
 10
346.8721379468
 20
-86.2785577979
 10
346.386218581
 20
-85.6308643305
 10
346.0007305601
 20
-84.864325016
 10
345.7212951674
 20
-83.9901177234
 10
345.5519872002
 20
-83.0209903638
 10
345.49527555
 20
-81.9710749963
 10
345.5519872002
 20
-80.8556817512
 10
345.7212951674
 20
-79.6910755735
 10
346.0007305601
 20
-78.494239044
 10
346.386218581
 20
-77.2826247341
 10
346.8721379468
 20
-76.0739007089
 10
347.451402859
 20
-74.8856928864
 10
348.1155663306
 20
-73.7353280124
 10
348.8549433628
 20
-72.639580997
 10
349.6587521734
 20
-71.6144302992
 10
350.5152714201
 20
-70.6748249246
 10
351.4120111233
 20
-69.8344664353
 10
352.3358947991
 20
-69.1056091505
 10
353.273450143
 20
-68.4988814505
 10
354.2110054869
 20
-68.0231307916
 10
355.1348891627
 20
-67.6852946896
 10
356.031628866
 20
-67.4902995556
 10
356.8881481126
 20
-67.4409888577
 10
357.6919569233
 20
-67.538081657
 10
358.4313339554
 20
-67.7801621218
 10
359.0954974271
 20
-68.1637001739
 10
359.6747623392
 20
-68.6831029647
 10
360.160681705
 20
-69.330796432
 10
360.546169726
 20
-70.0973357466
 10
360.8256051187
 20
-70.9715430391
 10
360.9949130858
 20
-71.9406703987
 10
361.0516247361
 20
-72.9905857663
  0
LWPOLYLINE
  5
110
330
1F
100
AcDbEntity
  8
0
  6
Continuous
 62
     7
370
    25
100
AcDbPolyline
 90
       53
 70
   128
 43
0.0
 10
275.774546925
 20
-122.2199949092
 10
275.7178352747
 20
-123.3353881543
 10
275.5485273076
 20
-124.4999943319
 10
275.2690919149
 20
-125.6968308615
 10
274.8836038939
 20
-126.9084451714
 10
274.3976845281
 20
-128.1171691966
 10
273.818419616
 20
-129.3053770191
 10
273.1542561443
 20
-130.4557418931
 10
272.4148791122
 20
-131.5514889085
 10
271.6110703015
 20
-132.5766396063
 10
270.7545510549
 20
-133.5162449809
 10
269.8578113516
 20
-134.3566034702
 10
268.9339276758
 20
-135.085460755
 10
267.9963723319
 20
-135.6921884549
 10
267.058816988
 20
-136.1679391139
 10
266.1349333123
 20
-136.5057752159
 10
265.238193609
 20
-136.7007703499
 10
264.3816743623
 20
-136.7500810478
 10
263.5778655517
 20
-136.6529882485
 10
262.8384885195
 20
-136.4109077836
 10
262.1743250479
 20
-136.0273697316
 10
261.5950601357
 20
-135.5079669408
 10
261.1091407699
 20
-134.8602734735
 10
260.723652749
 20
-134.0937341589
 10
260.4442173563
 20
-133.2195268663
 10
260.2749093891
 20
-132.2503995067
 10
260.2181977389
 20
-131.2004841392
 10
260.2749093891
 20
-130.0850908941
 10
260.4442173563
 20
-128.9204847164
 10
260.723652749
 20
-127.7236481869
 10
261.1091407699
 20
-126.512033877
 10
261.5950601357
 20
-125.3033098518
 10
262.1743250479
 20
-124.1151020293
 10
262.8384885195
 20
-122.9647371553
 10
263.5778655517
 20
-121.8689901399
 10
264.3816743623
 20
-120.8438394421
 10
265.238193609
 20
-119.9042340675
 10
266.1349333123
 20
-119.0638755782
 10
267.058816988
 20
-118.3350182934
 10
267.9963723319
 20
-117.7282905934
 10
268.9339276758
 20
-117.2525399345
 10
269.8578113516
 20
-116.9147038325
 10
270.7545510549
 20
-116.7197086985
 10
271.6110703015
 20
-116.6703980006
 10
272.4148791122
 20
-116.7674907999
 10
273.1542561443
 20
-117.0095712647
 10
273.818419616
 20
-117.3931093168
 10
274.3976845281
 20
-117.9125121076
 10
274.8836038939
 20
-118.5602055749
 10
275.2690919149
 20
-119.3267448895
 10
275.5485273076
 20
-120.200952182
 10
275.7178352747
 20
-121.1700795417
 10
275.774546925
 20
-122.2199949092
  0
LINE
  5
111
330
1F
100
AcDbEntity
  8
0
  6
Continuous
 62
     7
370
    25
100
AcDbLine
 10
348.980963261
 20
-86.549523061
 30
0.0
 11
349.0295686025
 21
-86.577042065
 31
0.0
  0
LINE
  5
112
330
1F
100
AcDbEntity
  8
0
  6
Continuous
 62
     7
370
    25
100
AcDbLine
 10
306.3424243555
 20
-160.4016385892
 30
0.0
 11
306.3910296969
 21
-160.4291575931
 31
0.0
  0
ARC
  5
113
330
1F
100
AcDbEntity
  8
0
  6
Continuous
 62
     7
370
    25
100
AcDbCircle
 10
324.2776543691
 20
-80.0954459532
 30
0.0
 40
13.12520242445529
100
AcDbArc
 50
50.1986528527
 51
71.3537670528
  0
ARC
  5
114
330
1F
100
AcDbEntity
  8
0
  6
Continuous
 62
     7
370
    25
100
AcDbCircle
 10
298.3891260744
 20
-124.9402014893
 30
0.0
 40
13.09267511373744
100
AcDbArc
 50
229.1221656806
 51
249.6751399673
  0
LINE
  5
115
330
1F
100
AcDbEntity
  8
0
  6
Continuous
 62
     7
370
    25
100
AcDbLine
 10
306.3424243555
 20
-61.9268166757
 30
0.0
 11
306.3910296969
 21
-61.9543356797
 31
0.0
  0
LINE
  5
116
330
1F
100
AcDbEntity
  8
0
  6
Continuous
 62
     7
370
    25
100
AcDbLine
 10
263.7038854499
 20
-135.7789322039
 30
0.0
 11
263.7524907914
 21
-135.8064512079
 31
0.0
  0
LWPOLYLINE
  5
117
330
1F
100
AcDbEntity
  8
0
  6
Continuous
 62
     1
370
    25
100
AcDbPolyline
 90
       52
 70
   128
 43
0.0
 10
369.6783274666
 20
-68.826904396
 10
369.6212294339
 20
-71.8396288485
 10
369.4500471082
 20
-74.9123797367
 10
369.1651155867
 20
-78.0391420063
 10
368.7669926364
 20
-81.2137948734
 10
368.2564576016
 20
-84.4301238059
 10
367.6345098786
 20
-87.681832689
 10
366.9023669593
 20
-90.9625561497
 10
366.0614620478
 20
-94.2658720178
 10
365.113441255
 20
-97.5853138974
 10
364.0601603762
 20
-100.9143838251
 10
362.903681258
 20
-104.2465649903
 10
361.6462677626
 20
-107.5753344917
 10
360.2903813361
 20
-110.8941761068
 10
358.8386761898
 20
-114.1965930473
 10
357.2939941047
 20
-117.4761206769
 10
355.6593588685
 20
-120.7263391663
 10
353.9379703564
 20
-123.9408860601
 10
352.1331982673
 20
-127.1134687319
 10
350.2485755273
 20
-130.2378767021
 10
348.287791374
 20
-133.3079937953
 10
346.2546841343
 20
-136.3178101133
 10
344.1532337112
 20
-139.2614337991
 10
341.9875537926
 20
-142.1331025713
 10
339.7618837986
 20
-144.9271950032
 10
337.4805805827
 20
-147.6382415279
 10
335.1481099031
 20
-150.2609351444
 10
332.7690376807
 20
-152.7901418067
 10
330.3480210612
 20
-155.2209104741
 10
327.8897992981
 20
-157.5484828028
 10
325.3991844761
 20
-159.7683024606
 10
322.8810520907
 20
-161.8760240463
 10
320.3403315041
 20
-163.8675215959
 10
317.7819962964
 20
-165.7388966594
 10
315.2110545288
 20
-167.4864859323
 10
312.6325389405
 20
-169.1068684265
 10
310.0514970969
 20
-170.5968721672
 10
307.4729815086
 20
-171.9535804021
 10
304.9020397409
 20
-173.1743373111
 10
302.3437045332
 20
-174.2567532052
 10
299.8029839467
 20
-175.1987092045
 10
297.2848515612
 20
-175.9983613858
 10
294.7942367392
 20
-176.6541443926
 10
292.3360149762
 20
-177.1647744987
 10
289.9149983566
 20
-177.5292521218
 10
287.5359261342
 20
-177.7468637797
 10
285.2034554546
 20
-177.8171834875
 10
282.9221522388
 20
-177.740073591
 10
280.6964822447
 20
-177.5156850364
 10
278.5308023261
 20
-177.1444570749
 10
276.429351903
 20
-176.6271164027
 10
274.689549591
 20
-176.0707061536
  0
LWPOLYLINE
  5
118
330
1F
100
AcDbEntity
  8
0
  6
Continuous
 62
     1
370
    25
100
AcDbPolyline
 90
       17
 70
   128
 43
0.0
 10
356.9676237109
 20
-34.1873058723
 10
357.2939941047
 20
-34.4763350594
 10
358.8386761898
 20
-35.9724107154
 10
360.2903813361
 20
-37.5987245708
 10
361.6462677626
 20
-39.3520930399
 10
362.903681258
 20
-41.2290838216
 10
364.0601603762
 20
-43.2260226183
 10
365.113441255
 20
-45.3390003285
 10
366.0614620478
 20
-47.5638806991
 10
366.9023669593
 20
-49.8963084224
 10
367.6345098786
 20
-52.3317176615
 10
368.2564576016
 20
-54.8653409884
 10
368.7669926364
 20
-57.4922187166
 10
369.1651155867
 20
-60.2072086095
 10
369.4500471082
 20
-63.0049959469
 10
369.6212294339
 20
-65.8801039287
 10
369.6783274666
 20
-68.826904396
  0
LWPOLYLINE
  5
119
330
1F
100
AcDbEntity
  8
0
  6
Continuous
 62
     1
370
    25
100
AcDbPolyline
 90
       17
 70
   128
 43
0.0
 10
380.9920359655
 20
-75.3581692905
 10
380.9349379329
 20
-72.4113688232
 10
380.7637556072
 20
-69.5362608414
 10
380.4788240857
 20
-66.738473504
 10
380.0807011354
 20
-64.0234836112
 10
379.5701661006
 20
-61.396605883
 10
378.9482183776
 20
-58.862982556
 10
378.2160754583
 20
-56.427573317
 10
377.3751705468
 20
-54.0951455937
 10
376.427149754
 20
-51.8702652231
 10
375.3738688751
 20
-49.7572875129
 10
374.2173897569
 20
-47.7603487162
 10
372.9599762616
 20
-45.8833579345
 10
371.6040898351
 20
-44.1299894653
 10
370.1523846888
 20
-42.5036756099
 10
368.6077026037
 20
-41.007599954
 10
368.208449178
 20
-40.6552274234
  0
LWPOLYLINE
  5
11A
330
1F
100
AcDbEntity
  8
0
  6
Continuous
 62
     1
370
    25
100
AcDbPolyline
 90
       52
 70
   128
 43
0.0
 10
286.4027077525
 20
-182.7405670311
 10
287.743060402
 20
-183.1583812973
 10
289.8445108251
 20
-183.6757219695
 10
292.0101907437
 20
-184.046949931
 10
294.2358607377
 20
-184.2713384855
 10
296.5171639536
 20
-184.3484483821
 10
298.8496346332
 20
-184.2781286743
 10
301.2287068556
 20
-184.0605170163
 10
303.6497234752
 20
-183.6960393933
 10
306.1079452382
 20
-183.1854092872
 10
308.5985600602
 20
-182.5296262804
 10
311.1166924457
 20
-181.729974099
 10
313.6574130322
 20
-180.7880180998
 10
316.2157482399
 20
-179.7056022056
 10
318.7866900076
 20
-178.4848452967
 10
321.3652055959
 20
-177.1281370618
 10
323.9462474395
 20
-175.6381333211
 10
326.5247630278
 20
-174.0177508269
 10
329.0957047954
 20
-172.270161554
 10
331.6540400031
 20
-170.3987864904
 10
334.1947605897
 20
-168.4072889408
 10
336.7128929751
 20
-166.2995673552
 10
339.2035077971
 20
-164.0797476974
 10
341.6617295602
 20
-161.7521753687
 10
344.0827461797
 20
-159.3214067013
 10
346.4618184021
 20
-156.7922000389
 10
348.7942890817
 20
-154.1695064225
 10
351.0755922976
 20
-151.4584598978
 10
353.3012622916
 20
-148.6643674658
 10
355.4669422102
 20
-145.7926986937
 10
357.5683926333
 20
-142.8490750079
 10
359.601499873
 20
-139.8392586899
 10
361.5622840263
 20
-136.7691415967
 10
363.4469067663
 20
-133.6447336265
 10
365.2516788554
 20
-130.4721509547
 10
366.9730673675
 20
-127.2576040608
 10
368.6077026037
 20
-124.0073855715
 10
370.1523846888
 20
-120.7278579419
 10
371.6040898351
 20
-117.4254410014
 10
372.9599762616
 20
-114.1065993863
 10
374.2173897569
 20
-110.7778298848
 10
375.3738688751
 20
-107.4456487197
 10
376.427149754
 20
-104.116578792
 10
377.3751705468
 20
-100.7971369124
 10
378.2160754583
 20
-97.4938210443
 10
378.9482183776
 20
-94.2130975836
 10
379.5701661006
 20
-90.9613887005
 10
380.0807011354
 20
-87.745059768
 10
380.4788240857
 20
-84.5704069009
 10
380.7637556072
 20
-81.4436446312
 10
380.9349379329
 20
-78.3708937431
 10
380.9920359655
 20
-75.3581692905
  0
LWPOLYLINE
  5
11B
330
1F
100
AcDbEntity
  8
0
  6
Continuous
 62
     1
370
    25
100
AcDbPolyline
 90
       26
 70
   128
 43
0.0
 10
359.0073097351
 20
-69.2443957017
 10
358.3892955932
 20
-68.9599506433
 10
357.6461459279
 20
-68.790345288
 10
356.8428073925
 20
-68.770140157
 10
355.9924707836
 20
-68.8996670179
 10
355.1090986048
 20
-69.1767990434
 10
354.2071958027
 20
-69.5969857331
 10
353.3015715965
 20
-70.1533276333
 10
352.4070963106
 20
-70.8366896254
 10
351.5384572046
 20
-71.6358509244
 10
350.7099173083
 20
-72.5376893237
 10
349.9350812242
 20
-73.5273966618
 10
349.2266717392
 20
-74.5887219716
 10
348.5963209175
 20
-75.7042383209
 10
348.0543791022
 20
-76.855628962
 10
347.6097449629
 20
-78.0239880924
 10
347.2697193799
 20
-79.1901312876
 10
347.0398855638
 20
-80.3349105084
 10
346.9240173795
 20
-81.4395285118
 10
346.9240173795
 20
-82.4858475006
 10
347.0398855638
 20
-83.456686946
 10
347.2697193799
 20
-84.3361056911
 10
347.6097449629
 20
-85.1096637045
 10
348.0543791022
 20
-85.7646591849
 10
348.5963209175
 20
-86.2903371248
 10
348.980963261
 20
-86.549523061
  0
LWPOLYLINE
  5
11C
330
1F
100
AcDbEntity
  8
0
  6
Continuous
 62
     1
370
    25
100
AcDbPolyline
 90
       26
 70
   128
 43
0.0
 10
316.3687708295
 20
-143.0965112299
 10
315.7507566876
 20
-142.8120661715
 10
315.0076070224
 20
-142.6424608161
 10
314.204268487
 20
-142.6222556851
 10
313.3539318781
 20
-142.7517825461
 10
312.4705596992
 20
-143.0289145715
 10
311.5686568972
 20
-143.4491012613
 10
310.663032691
 20
-144.0054431615
 10
309.7685574051
 20
-144.6888051536
 10
308.899918299
 20
-145.4879664525
 10
308.0713784028
 20
-146.3898048518
 10
307.2965423186
 20
-147.37951219
 10
306.5881328336
 20
-148.4408374998
 10
305.957782012
 20
-149.5563538491
 10
305.4158401967
 20
-150.7077444902
 10
304.9712060573
 20
-151.8761036206
 10
304.6311804743
 20
-153.0422468157
 10
304.4013466582
 20
-154.1870260366
 10
304.285478474
 20
-155.2916440399
 10
304.285478474
 20
-156.3379630288
 10
304.4013466582
 20
-157.3088024742
 10
304.6311804743
 20
-158.1882212193
 10
304.9712060573
 20
-158.9617792327
 10
305.4158401967
 20
-159.6167747131
 10
305.957782012
 20
-160.1424526529
 10
306.3424243555
 20
-160.4016385892
  0
LWPOLYLINE
  5
11D
330
1F
100
AcDbEntity
  8
0
  6
Continuous
 62
     1
370
    25
100
AcDbPolyline
 90
       47
 70
   128
 43
0.0
 10
328.4740962736
 20
-67.6591758522
 10
327.1193732488
 20
-67.2772050776
 10
325.6378151331
 20
-67.0188513267
 10
324.0975125206
 20
-66.9063125908
 10
322.5047948452
 20
-66.9400513157
 10
320.8662069253
 20
-67.1199288617
 10
319.1884820704
 20
-67.4452060734
 10
317.4785144116
 20
-67.914546317
 10
315.7433305728
 20
-68.5260209727
 10
313.9900607967
 20
-69.27711736
 10
312.2259096448
 20
-70.1647490627
 10
310.4581263926
 20
-71.1852686119
 10
308.6939752407
 20
-72.3344824736
 10
306.9407054645
 20
-73.6076682818
 10
305.2055216258
 20
-74.9995942428
 10
303.495553967
 20
-76.5045406342
 10
301.817829112
 20
-78.1163233085
 10
300.1792411922
 20
-79.8283191051
 10
298.5865235167
 20
-81.6334930659
 10
297.0462209043
 20
-83.5244273439
 10
295.5646627886
 20
-85.4933516847
 10
294.1479372098
 20
-87.5321753556
 10
292.8018657971
 20
-89.632520393
 10
291.5319798468
 20
-91.7857560285
 10
290.3434975925
 20
-93.9830341551
 10
289.2413027629
 20
-96.2153256857
 10
288.2299245128
 20
-98.4734576554
 10
287.3135188125
 20
-100.7481509157
 10
286.4958513695
 20
-103.0300582641
 10
285.7802821548
 20
-105.3098028538
 10
285.1697515957
 20
-107.5780167252
 10
284.6667684933
 20
-109.825379301
 10
284.2733997129
 20
-112.0426556864
 10
283.9912616915
 20
-114.2207346171
 10
283.8215137944
 20
-116.3506658995
 10
283.7648535524
 20
-118.4236971892
 10
283.8215137944
 20
-120.4313099559
 10
283.9912616915
 20
-122.3652544881
 10
284.2733997129
 20
-124.217583793
 10
284.6667684933
 20
-125.980686252
 10
285.1697515957
 20
-127.647316899
 10
285.7802821548
 20
-129.2106271911
 10
286.4958513695
 20
-130.6641931511
 10
287.3135188125
 20
-132.0020417647
 10
288.2299245128
 20
-133.2186755249
 10
289.2413027629
 20
-134.3090950225
 10
289.820646421
 20
-134.8396609726
  0
LWPOLYLINE
  5
11E
330
1F
100
AcDbEntity
  8
0
  6
Continuous
 62
     1
370
    25
100
AcDbPolyline
 90
       42
 70
   128
 43
0.0
 10
298.3105053846
 20
-138.0481843698
 10
297.8095598685
 20
-137.1954580457
 10
297.0939906538
 20
-135.7418920857
 10
296.4834600947
 20
-134.1785817935
 10
295.9804769922
 20
-132.5119511465
 10
295.5871082119
 20
-130.7488486875
 10
295.3049701904
 20
-128.8965193827
 10
295.1352222934
 20
-126.9625748505
 10
295.0785620514
 20
-124.9549620838
 10
295.1352222934
 20
-122.8819307941
 10
295.3049701904
 20
-120.7519995117
 10
295.5871082119
 20
-118.573920581
 10
295.9804769922
 20
-116.3566441956
 10
296.4834600947
 20
-114.1092816197
 10
297.0939906538
 20
-111.8410677483
 10
297.8095598685
 20
-109.5613231587
 10
298.6272273115
 20
-107.2794158103
 10
299.5436330118
 20
-105.00472255
 10
300.5550112619
 20
-102.7465905803
 10
301.6572060915
 20
-100.5142990497
 10
302.8456883458
 20
-98.3170209231
 10
304.1155742961
 20
-96.1637852876
 10
305.4616457087
 20
-94.0634402502
 10
306.8783712876
 20
-92.0246165792
 10
308.3599294033
 20
-90.0556922385
 10
309.9002320157
 20
-88.1647579605
 10
311.4929496912
 20
-86.3595839997
 10
313.131537611
 20
-84.6475882031
 10
314.8092624659
 20
-83.0358055288
 10
316.5192301248
 20
-81.5308591373
 10
318.2544139635
 20
-80.1389331764
 10
320.0076837396
 20
-78.8657473682
 10
321.7718348916
 20
-77.7165335064
 10
323.5396181438
 20
-76.6960139573
 10
325.3037692957
 20
-75.8083822546
 10
327.0570390718
 20
-75.0572858673
 10
328.7922229106
 20
-74.4458112116
 10
330.5021905694
 20
-73.976470968
 10
332.1799154243
 20
-73.6511937563
 10
333.8185033441
 20
-73.4713162103
 10
335.4112210196
 20
-73.4375774854
 10
335.6165698675
 20
-73.4440147334
  0
LWPOLYLINE
  5
11F
330
1F
100
AcDbEntity
  8
0
  6
Continuous
 62
     1
370
    25
100
AcDbPolyline
 90
       26
 70
   128
 43
0.0
 10
316.3687708295
 20
-44.6216893164
 10
315.7507566876
 20
-44.337244258
 10
315.0076070224
 20
-44.1676389027
 10
314.204268487
 20
-44.1474337717
 10
313.3539318781
 20
-44.2769606327
 10
312.4705596992
 20
-44.5540926581
 10
311.5686568972
 20
-44.9742793479
 10
310.663032691
 20
-45.5306212481
 10
309.7685574051
 20
-46.2139832402
 10
308.899918299
 20
-47.0131445391
 10
308.0713784028
 20
-47.9149829384
 10
307.2965423186
 20
-48.9046902766
 10
306.5881328337
 20
-49.9660155864
 10
305.957782012
 20
-51.0815319357
 10
305.4158401967
 20
-52.2329225768
 10
304.9712060574
 20
-53.4012817072
 10
304.6311804743
 20
-54.5674249023
 10
304.4013466582
 20
-55.7122041232
 10
304.285478474
 20
-56.8168221265
 10
304.285478474
 20
-57.8631411153
 10
304.4013466582
 20
-58.8339805607
 10
304.6311804743
 20
-59.7133993059
 10
304.9712060574
 20
-60.4869573192
 10
305.4158401967
 20
-61.1419527997
 10
305.957782012
 20
-61.6676307395
 10
306.3424243555
 20
-61.9268166757
  0
LWPOLYLINE
  5
120
330
1F
100
AcDbEntity
  8
0
  6
Continuous
 62
     1
370
    25
100
AcDbPolyline
 90
       26
 70
   128
 43
0.0
 10
273.730231924
 20
-118.4738048446
 10
273.1122177821
 20
-118.1893597862
 10
272.3690681168
 20
-118.0197544309
 10
271.5657295815
 20
-117.9995492999
 10
270.7153929725
 20
-118.1290761608
 10
269.8320207937
 20
-118.4062081863
 10
268.9301179916
 20
-118.826394876
 10
268.0244937854
 20
-119.3827367762
 10
267.1300184996
 20
-120.0660987683
 10
266.2613793935
 20
-120.8652600673
 10
265.4328394972
 20
-121.7670984666
 10
264.6580034131
 20
-122.7568058047
 10
263.9495939281
 20
-123.8181311145
 10
263.3192431064
 20
-124.9336474638
 10
262.7773012911
 20
-126.0850381049
 10
262.3326671518
 20
-127.2533972353
 10
261.9926415688
 20
-128.4195404305
 10
261.7628077527
 20
-129.5643196513
 10
261.6469395684
 20
-130.6689376547
 10
261.6469395684
 20
-131.7152566435
 10
261.7628077527
 20
-132.6860960889
 10
261.9926415688
 20
-133.565514834
 10
262.3326671518
 20
-134.3390728474
 10
262.7773012911
 20
-134.9940683278
 10
263.3192431064
 20
-135.5197462677
 10
263.7038854499
 20
-135.7789322039
  0
ENDSEC
  0
SECTION
  2
OBJECTS
  0
DICTIONARY
  5
C
330
0
100
AcDbDictionary
281
     1
  3
ACAD_GROUP
350
D
  3
ACAD_LAYOUT
350
1A
  3
ACAD_MLINESTYLE
350
17
  3
ACAD_PLOTSETTINGS
350
19
  3
ACAD_PLOTSTYLENAME
350
E
  3
ACAD_SCALELIST
350
47
  3
DWGPROPS
350
121
  0
DICTIONARY
  5
D
102
{ACAD_REACTORS
330
C
102
}
330
C
100
AcDbDictionary
281
     1
  0
DICTIONARY
  5
1A
102
{ACAD_REACTORS
330
C
102
}
330
C
100
AcDbDictionary
281
     1
  3
Layout1
350
1E
  3
Layout2
350
26
  3
Model
350
22
  0
DICTIONARY
  5
17
102
{ACAD_REACTORS
330
C
102
}
330
C
100
AcDbDictionary
281
     1
  3
Standard
350
18
  0
DICTIONARY
  5
19
102
{ACAD_REACTORS
330
C
102
}
330
C
100
AcDbDictionary
281
     1
  0
ACDBDICTIONARYWDFLT
  5
E
102
{ACAD_REACTORS
330
C
102
}
330
C
100
AcDbDictionary
281
     1
  3
Normal
350
F
100
AcDbDictionaryWithDefault
340
F
  0
DICTIONARY
  5
47
102
{ACAD_REACTORS
330
C
102
}
330
C
100
AcDbDictionary
281
     1
  3
A0
350
48
  3
A1
350
49
  3
A2
350
4A
  3
A3
350
4B
  3
A4
350
4C
  3
A5
350
4D
  3
A6
350
4E
  3
A7
350
4F
  3
A8
350
50
  3
A9
350
51
  3
B0
350
52
  3
B1
350
53
  3
B2
350
54
  3
B3
350
55
  3
B4
350
56
  3
B5
350
57
  3
B6
350
58
  3
B7
350
59
  3
B8
350
5A
  3
B9
350
5B
  3
C0
350
5C
  3
C1
350
5D
  3
C2
350
5E
  3
C3
350
5F
  3
C4
350
60
  3
C5
350
61
  3
C6
350
62
  3
C7
350
63
  3
C8
350
64
  3
C9
350
65
  3
D0
350
66
  3
D1
350
67
  3
D2
350
68
  0
XRECORD
  5
121
102
{ACAD_REACTORS
330
C
102
}
330
C
100
AcDbXrecord
280
     1
  1
DWGPROPS COOKIE
  2

  3

  4

  6

  7

  8
b.kav
  9

300
=
301
=
302
=
303
=
304
=
305
=
306
=
307
=
308
=
309
=
 40
0.0
 41
2459741.463655174
 42
2459741.463656702
  1

 90
        0
  0
LAYOUT
  5
1E
102
{ACAD_REACTORS
330
1A
102
}
330
1A
100
AcDbPlotSettings
  1

  2
none_device
  4

  6

 40
0.0
 41
0.0
 42
0.0
 43
0.0
 44
0.0
 45
0.0
 46
0.0
 47
0.0
 48
0.0
 49
0.0
140
0.0
141
0.0
142
1.0
143
1.0
 70
   688
 72
     1
 73
     0
 74
     5
  7

 75
    16
147
1.0
148
0.0
149
0.0
100
AcDbLayout
  1
Layout1
 70
     1
 71
     1
 10
0.0
 20
0.0
 11
420.0
 21
297.0
 12
0.0
 22
0.0
 32
0.0
 14
1.0000000000E+20
 24
1.0000000000E+20
 34
1.0000000000E+20
 15
-1.0000000000E+20
 25
-1.0000000000E+20
 35
-1.0000000000E+20
146
0.0
 13
0.0
 23
0.0
 33
0.0
 16
1.0
 26
0.0
 36
0.0
 17
0.0
 27
1.0
 37
0.0
 76
     0
330
1B
  0
LAYOUT
  5
26
102
{ACAD_REACTORS
330
1A
102
}
330
1A
100
AcDbPlotSettings
  1

  2
none_device
  4

  6

 40
0.0
 41
0.0
 42
0.0
 43
0.0
 44
0.0
 45
0.0
 46
0.0
 47
0.0
 48
0.0
 49
0.0
140
0.0
141
0.0
142
1.0
143
1.0
 70
   688
 72
     1
 73
     0
 74
     5
  7

 75
    16
147
1.0
148
0.0
149
0.0
100
AcDbLayout
  1
Layout2
 70
     1
 71
     2
 10
0.0
 20
0.0
 11
0.0
 21
0.0
 12
0.0
 22
0.0
 32
0.0
 14
0.0
 24
0.0
 34
0.0
 15
0.0
 25
0.0
 35
0.0
146
0.0
 13
0.0
 23
0.0
 33
0.0
 16
1.0
 26
0.0
 36
0.0
 17
0.0
 27
1.0
 37
0.0
 76
     0
330
23
  0
LAYOUT
  5
22
102
{ACAD_REACTORS
330
1A
102
}
330
1A
100
AcDbPlotSettings
  1

  2
none_device
  4
Letter_(8.50_x_11.00_Inches)
  6

 40
6.35
 41
6.35
 42
6.35000508
 43
6.35000508
 44
215.9
 45
279.4
 46
0.0
 47
0.0
 48
0.0
 49
0.0
140
0.0
141
0.0
142
1.0
143
1.0
 70
  1712
 72
     1
 73
     0
 74
     0
  7

 75
     0
147
1.0
148
0.0
149
0.0
100
AcDbLayout
  1
Model
 70
     1
 71
     0
 10
0.0
 20
0.0
 11
279.4
 21
215.9
 12
0.0
 22
0.0
 32
0.0
 14
0.0
 24
0.0
 34
0.0
 15
279.4
 25
215.9
 35
0.0
146
0.0
 13
0.0
 23
0.0
 33
0.0
 16
1.0
 26
0.0
 36
0.0
 17
0.0
 27
1.0
 37
0.0
 76
     0
330
1F
331
29
  0
MLINESTYLE
  5
18
102
{ACAD_REACTORS
330
17
102
}
330
17
100
AcDbMlineStyle
  2
Standard
 70
     0
  3

 62
   256
 51
90.0
 52
90.0
 71
     2
 49
0.5
 62
   256
  6
BYLAYER
 49
-0.5
 62
   256
  6
BYLAYER
  0
ACDBPLACEHOLDER
  5
F
102
{ACAD_REACTORS
330
E
102
}
330
E
  0
SCALE
  5
48
102
{ACAD_REACTORS
330
47
102
}
330
47
100
AcDbScale
 70
     0
300
1:1
140
1.0
141
1.0
290
     1
  0
SCALE
  5
49
102
{ACAD_REACTORS
330
47
102
}
330
47
100
AcDbScale
 70
     0
300
1:2
140
1.0
141
2.0
290
     0
  0
SCALE
  5
4A
102
{ACAD_REACTORS
330
47
102
}
330
47
100
AcDbScale
 70
     0
300
1:4
140
1.0
141
4.0
290
     0
  0
SCALE
  5
4B
102
{ACAD_REACTORS
330
47
102
}
330
47
100
AcDbScale
 70
     0
300
1:5
140
1.0
141
5.0
290
     0
  0
SCALE
  5
4C
102
{ACAD_REACTORS
330
47
102
}
330
47
100
AcDbScale
 70
     0
300
1:8
140
1.0
141
8.0
290
     0
  0
SCALE
  5
4D
102
{ACAD_REACTORS
330
47
102
}
330
47
100
AcDbScale
 70
     0
300
1:10
140
1.0
141
10.0
290
     0
  0
SCALE
  5
4E
102
{ACAD_REACTORS
330
47
102
}
330
47
100
AcDbScale
 70
     0
300
1:16
140
1.0
141
16.0
290
     0
  0
SCALE
  5
4F
102
{ACAD_REACTORS
330
47
102
}
330
47
100
AcDbScale
 70
     0
300
1:20
140
1.0
141
20.0
290
     0
  0
SCALE
  5
50
102
{ACAD_REACTORS
330
47
102
}
330
47
100
AcDbScale
 70
     0
300
1:30
140
1.0
141
30.0
290
     0
  0
SCALE
  5
51
102
{ACAD_REACTORS
330
47
102
}
330
47
100
AcDbScale
 70
     0
300
1:40
140
1.0
141
40.0
290
     0
  0
SCALE
  5
52
102
{ACAD_REACTORS
330
47
102
}
330
47
100
AcDbScale
 70
     0
300
1:50
140
1.0
141
50.0
290
     0
  0
SCALE
  5
53
102
{ACAD_REACTORS
330
47
102
}
330
47
100
AcDbScale
 70
     0
300
1:100
140
1.0
141
100.0
290
     0
  0
SCALE
  5
54
102
{ACAD_REACTORS
330
47
102
}
330
47
100
AcDbScale
 70
     0
300
2:1
140
2.0
141
1.0
290
     0
  0
SCALE
  5
55
102
{ACAD_REACTORS
330
47
102
}
330
47
100
AcDbScale
 70
     0
300
4:1
140
4.0
141
1.0
290
     0
  0
SCALE
  5
56
102
{ACAD_REACTORS
330
47
102
}
330
47
100
AcDbScale
 70
     0
300
8:1
140
8.0
141
1.0
290
     0
  0
SCALE
  5
57
102
{ACAD_REACTORS
330
47
102
}
330
47
100
AcDbScale
 70
     0
300
10:1
140
10.0
141
1.0
290
     0
  0
SCALE
  5
58
102
{ACAD_REACTORS
330
47
102
}
330
47
100
AcDbScale
 70
     0
300
100:1
140
100.0
141
1.0
290
     0
  0
SCALE
  5
59
102
{ACAD_REACTORS
330
47
102
}
330
47
100
AcDbScale
 70
     0
300
1/128" = 1'-0"
140
0.0078125
141
12.0
290
     0
  0
SCALE
  5
5A
102
{ACAD_REACTORS
330
47
102
}
330
47
100
AcDbScale
 70
     0
300
1/64" = 1'-0"
140
0.015625
141
12.0
290
     0
  0
SCALE
  5
5B
102
{ACAD_REACTORS
330
47
102
}
330
47
100
AcDbScale
 70
     0
300
1/32" = 1'-0"
140
0.03125
141
12.0
290
     0
  0
SCALE
  5
5C
102
{ACAD_REACTORS
330
47
102
}
330
47
100
AcDbScale
 70
     0
300
1/16" = 1'-0"
140
0.0625
141
12.0
290
     0
  0
SCALE
  5
5D
102
{ACAD_REACTORS
330
47
102
}
330
47
100
AcDbScale
 70
     0
300
3/32" = 1'-0"
140
0.09375
141
12.0
290
     0
  0
SCALE
  5
5E
102
{ACAD_REACTORS
330
47
102
}
330
47
100
AcDbScale
 70
     0
300
1/8" = 1'-0"
140
0.125
141
12.0
290
     0
  0
SCALE
  5
5F
102
{ACAD_REACTORS
330
47
102
}
330
47
100
AcDbScale
 70
     0
300
3/16" = 1'-0"
140
0.1875
141
12.0
290
     0
  0
SCALE
  5
60
102
{ACAD_REACTORS
330
47
102
}
330
47
100
AcDbScale
 70
     0
300
1/4" = 1'-0"
140
0.25
141
12.0
290
     0
  0
SCALE
  5
61
102
{ACAD_REACTORS
330
47
102
}
330
47
100
AcDbScale
 70
     0
300
3/8" = 1'-0"
140
0.375
141
12.0
290
     0
  0
SCALE
  5
62
102
{ACAD_REACTORS
330
47
102
}
330
47
100
AcDbScale
 70
     0
300
1/2" = 1'-0"
140
0.5
141
12.0
290
     0
  0
SCALE
  5
63
102
{ACAD_REACTORS
330
47
102
}
330
47
100
AcDbScale
 70
     0
300
3/4" = 1'-0"
140
0.75
141
12.0
290
     0
  0
SCALE
  5
64
102
{ACAD_REACTORS
330
47
102
}
330
47
100
AcDbScale
 70
     0
300
1" = 1'-0"
140
1.0
141
12.0
290
     0
  0
SCALE
  5
65
102
{ACAD_REACTORS
330
47
102
}
330
47
100
AcDbScale
 70
     0
300
1-1/2" = 1'-0"
140
1.5
141
12.0
290
     0
  0
SCALE
  5
66
102
{ACAD_REACTORS
330
47
102
}
330
47
100
AcDbScale
 70
     0
300
3" = 1'-0"
140
3.0
141
12.0
290
     0
  0
SCALE
  5
67
102
{ACAD_REACTORS
330
47
102
}
330
47
100
AcDbScale
 70
     0
300
6" = 1'-0"
140
6.0
141
12.0
290
     0
  0
SCALE
  5
68
102
{ACAD_REACTORS
330
47
102
}
330
47
100
AcDbScale
 70
     0
300
1'-0" = 1'-0"
140
12.0
141
12.0
290
     0
  0
ENDSEC
  0
EOF
